  0
SECTION
  2
HEADER
  9
$ACADVER
  1
AC1009
  9
$INSBASE
 10
0.0
 20
0.0
 30
0.0
  9
$EXTMIN
 10
-180.0109854899473
 20
-271.1718524144373
 30
-0.0015258207003583
  9
$EXTMAX
 10
180.01098716632799
 20
263.52506963915738
 30
0.0000000349246037
  9
$LIMMIN
 10
0.0
 20
0.0
  9
$LIMMAX
 10
0.0
 20
0.0
  9
$ORTHOMODE
 70
     0
  9
$REGENMODE
 70
     1
  9
$FILLMODE
 70
     1
  9
$QTEXTMODE
 70
     0
  9
$MIRRTEXT
 70
     1
  9
$DRAGMODE
 70
     2
  9
$LTSCALE
 40
10.16
  9
$OSMODE
 70
   231
  9
$ATTMODE
 70
     1
  9
$TEXTSIZE
 40
0.0
  9
$TRACEWID
 40
1.0
  9
$TEXTSTYLE
  7
STANDARD
  9
$CLAYER
  8
DATA
  9
$CELTYPE
  6
BYLAYER
  9
$CECOLOR
 62
   256
  9
$DIMSCALE
 40
1.0
  9
$DIMASZ
 40
0.18
  9
$DIMEXO
 40
0.0625
  9
$DIMDLI
 40
0.38
  9
$DIMRND
 40
0.0
  9
$DIMDLE
 40
0.0
  9
$DIMEXE
 40
0.18
  9
$DIMTP
 40
0.0
  9
$DIMTM
 40
0.0
  9
$DIMTXT
 40
0.18
  9
$DIMCEN
 40
0.09
  9
$DIMTSZ
 40
0.0
  9
$DIMTOL
 70
     0
  9
$DIMLIM
 70
     0
  9
$DIMTIH
 70
     1
  9
$DIMTOH
 70
     1
  9
$DIMSE1
 70
     0
  9
$DIMSE2
 70
     0
  9
$DIMTAD
 70
     0
  9
$DIMZIN
 70
     0
  9
$DIMBLK
  1

  9
$DIMASO
 70
     1
  9
$DIMSHO
 70
     1
  9
$DIMPOST
  1

  9
$DIMAPOST
  1

  9
$DIMALT
 70
     0
  9
$DIMALTD
 70
     2
  9
$DIMALTF
 40
25.399999999999999
  9
$DIMLFAC
 40
1.0
  9
$DIMTOFL
 70
     0
  9
$DIMTVP
 40
0.0
  9
$DIMTIX
 70
     0
  9
$DIMSOXD
 70
     0
  9
$DIMSAH
 70
     0
  9
$DIMBLK1
  1

  9
$DIMBLK2
  1

  9
$DIMSTYLE
  2
STANDARD
  9
$DIMCLRD
 70
     0
  9
$DIMCLRE
 70
     0
  9
$DIMCLRT
 70
     0
  9
$DIMTFAC
 40
1.0
  9
$DIMGAP
 40
0.09
  9
$LUNITS
 70
     2
  9
$LUPREC
 70
     4
  9
$SKETCHINC
 40
0.1
  9
$FILLETRAD
 40
0.0
  9
$AUNITS
 70
     0
  9
$AUPREC
 70
     0
  9
$MENU
  1
acad
  9
$ELEVATION
 40
0.0
  9
$PELEVATION
 40
0.0
  9
$THICKNESS
 40
0.0
  9
$LIMCHECK
 70
     0
  9
$BLIPMODE
 70
     0
  9
$CHAMFERA
 40
0.0
  9
$CHAMFERB
 40
0.0
  9
$SKPOLY
 70
     0
  9
$TDCREATE
 40
2456696.7154166671
  9
$TDUPDATE
 40
2456696.7213774882
  9
$TDINDWG
 40
0.0002874884
  9
$TDUSRTIMER
 40
0.0002873958
  9
$USRTIMER
 70
     1
  9
$ANGBASE
 50
0.0
  9
$ANGDIR
 70
     0
  9
$PDMODE
 70
     1
  9
$PDSIZE
 40
-2.0
  9
$PLINEWID
 40
0.0
  9
$COORDS
 70
     2
  9
$SPLFRAME
 70
     0
  9
$SPLINETYPE
 70
     6
  9
$SPLINESEGS
 70
     8
  9
$ATTDIA
 70
     0
  9
$ATTREQ
 70
     1
  9
$HANDLING
 70
     1
  9
$HANDSEED
  5
393
  9
$SURFTAB1
 70
     6
  9
$SURFTAB2
 70
     6
  9
$SURFTYPE
 70
     6
  9
$SURFU
 70
     6
  9
$SURFV
 70
     6
  9
$UCSNAME
  2

  9
$UCSORG
 10
0.0
 20
0.0
 30
0.0
  9
$UCSXDIR
 10
1.0
 20
0.0
 30
0.0
  9
$UCSYDIR
 10
0.0
 20
1.0
 30
0.0
  9
$PUCSNAME
  2

  9
$PUCSORG
 10
0.0
 20
0.0
 30
0.0
  9
$PUCSXDIR
 10
1.0
 20
0.0
 30
0.0
  9
$PUCSYDIR
 10
0.0
 20
1.0
 30
0.0
  9
$USERI1
 70
     0
  9
$USERI2
 70
     0
  9
$USERI3
 70
     0
  9
$USERI4
 70
     0
  9
$USERI5
 70
     0
  9
$USERR1
 40
0.0
  9
$USERR2
 40
0.0
  9
$USERR3
 40
0.0
  9
$USERR4
 40
0.0
  9
$USERR5
 40
0.0
  9
$WORLDVIEW
 70
     1
  9
$SHADEDGE
 70
     3
  9
$SHADEDIF
 70
    70
  9
$TILEMODE
 70
     1
  9
$MAXACTVP
 70
    64
  9
$PLIMCHECK
 70
     0
  9
$PEXTMIN
 10
1.0000000000000000E+020
 20
1.0000000000000000E+020
 30
1.0000000000000000E+020
  9
$PEXTMAX
 10
-1.0000000000000000E+020
 20
-1.0000000000000000E+020
 30
-1.0000000000000000E+020
  9
$PLIMMIN
 10
0.0
 20
0.0
  9
$PLIMMAX
 10
12.0
 20
9.0
  9
$UNITMODE
 70
     0
  9
$VISRETAIN
 70
     0
  9
$PLINEGEN
 70
     1
  9
$PSLTSCALE
 70
     0
  0
ENDSEC
  0
SECTION
  2
TABLES
  0
TABLE
  2
VPORT
 70
     1
  0
VPORT
  2
*ACTIVE
 70
     0
 10
0.0
 20
0.0
 11
1.0
 21
1.0
 12
0.000000838190374
 22
-3.8233913876399579
 13
0.0
 23
0.0
 14
1.0
 24
1.0
 15
0.0
 25
0.0
 16
0.0
 26
0.0
 36
1.0
 17
0.0
 27
0.0
 37
0.0
 40
538.90713403826874
 41
2.1787122207621552
 42
50.0
 43
0.0
 44
0.0
 50
0.0
 51
0.0
 71
     0
 72
  2000
 73
     1
 74
     1
 75
     0
 76
     0
 77
     0
 78
     0
  0
ENDTAB
  0
TABLE
  2
LTYPE
 70
    11
  0
LTYPE
  2
CONTINUOUS
 70
     0
  3
Solid line
 72
    65
 73
     0
 40
0.0
  0
ENDTAB
  0
TABLE
  2
LAYER
 70
     5
  0
LAYER
  2
0
 70
     0
 62
     7
  6
CONTINUOUS
  0
LAYER
  2
DATA
 70
     0
 62
     7
  6
CONTINUOUS
  0
LAYER
  2
HIBINO-BASE
 70
     0
 62
     7
  6
CONTINUOUS
  0
LAYER
  2
SPEC
 70
     0
 62
     7
  6
CONTINUOUS
  0
LAYER
  2
DIMNSIONS
 70
     0
 62
     7
  6
CONTINUOUS
  0
ENDTAB
  0
TABLE
  2
STYLE
 70
     3
  0
STYLE
  2
STANDARD
 70
     0
 40
0.0
 41
1.0
 50
0.0
 71
     0
 42
0.0
  3
txt
  4
BIGFONT.SHX
  0
ENDTAB
  0
TABLE
  2
VIEW
 70
     0
  0
ENDTAB
  0
TABLE
  2
UCS
 70
     0
  0
ENDTAB
  0
TABLE
  2
APPID
 70
     4
  0
APPID
  2
ACAD
 70
     0
  0
APPID
  2
ACADANNOTATIVE
 70
     0
  0
APPID
  2
ACAD_NAV_VCDISPLAY
 70
     0
  0
APPID
  2
ACAD_MLEADERVER
 70
     0
  0
ENDTAB
  0
TABLE
  2
DIMSTYLE
 70
     2
  0
DIMSTYLE
  2
STANDARD
 70
     0
  3

  4

  5

  6

  7

 40
1.0
 41
0.18
 42
0.0625
 43
0.38
 44
0.18
 45
0.0
 46
0.0
 47
0.0
 48
0.0
140
0.18
141
0.09
142
0.0
143
25.399999999999999
144
1.0
145
0.0
146
1.0
147
0.09
 71
     0
 72
     0
 73
     1
 74
     1
 75
     0
 76
     0
 77
     0
 78
     0
170
     0
171
     2
172
     0
173
     0
174
     0
175
     0
176
     0
177
     0
178
     0
  0
ENDTAB
  0
ENDSEC
  0
SECTION
  2
BLOCKS
  0
BLOCK
  8
0
  2
$MODEL_SPACE
 70
     0
 10
0.0
 20
0.0
 30
0.0
  3
$MODEL_SPACE
  1

  0
ENDBLK
  5
31D
  8
0
  0
BLOCK
 67
     1
  8
0
  2
$PAPER_SPACE
 70
     0
 10
0.0
 20
0.0
 30
0.0
  3
$PAPER_SPACE
  1

  0
ENDBLK
  5
319
 67
     1
  8
0
  0
ENDSEC
  0
SECTION
  2
ENTITIES
  0
LINE
  5
2C
  8
HIBINO-BASE
  6
CONTINUOUS
 62
     7
 10
-179.99999999999989
 20
263.5087852777778
 30
0.0
 11
179.99999999999989
 21
263.5087852777778
 31
0.0
  0
LINE
  5
2D
  8
HIBINO-BASE
  6
CONTINUOUS
 62
     7
 10
179.99999999999989
 20
-256.4912147222222
 30
0.0
 11
-179.99999999999989
 21
-256.4912147222222
 31
0.0
  0
LINE
  5
2E
  8
HIBINO-BASE
  6
CONTINUOUS
 62
     7
 10
-179.99999999999989
 20
-256.4912147222222
 30
0.0
 11
-179.99999999999989
 21
263.5087852777778
 31
0.0
  0
LINE
  5
2F
  8
HIBINO-BASE
  6
CONTINUOUS
 62
     7
 10
179.99999999999989
 20
263.5087852777778
 30
0.0
 11
179.99999999999989
 21
-256.4912147222222
 31
0.0
  0
LINE
  5
30
  8
HIBINO-BASE
  6
CONTINUOUS
 62
     7
 10
0.0000000000000142
 20
-211.49121472222211
 30
0.0
 11
179.99999999999989
 21
-211.49121472222211
 31
0.0
  0
LINE
  5
31
  8
HIBINO-BASE
  6
CONTINUOUS
 62
     7
 10
0.0000000000000142
 20
-256.4912147222222
 30
0.0
 11
0.0000000000000142
 21
-211.49121472222211
 31
0.0
  0
TEXT
  5
32
  8
HIBINO-BASE
 62
     7
 10
1.8000000000000249
 20
-216.50860138888879
 30
0.0
 40
3.2576822916666659
  1
NOTE
 41
0.7
 11
1.8000000000000249
 21
-213.25091909722209
 31
0.0
 73
     3
  0
LINE
  5
33
  8
HIBINO-BASE
  6
CONTINUOUS
 62
     7
 10
70.000000000000014
 20
-256.4912147222222
 30
0.0
 11
70.000000000000014
 21
-211.49121472222211
 31
0.0
  0
TEXT
  5
34
  8
HIBINO-BASE
 62
     7
 10
71.799999999999983
 20
-216.50860138888879
 30
0.0
 40
3.2576822916666659
  1
TITLE
 41
0.7
 11
71.799999999999983
 21
-213.25091909722209
 31
0.0
 73
     3
  0
LINE
  5
35
  8
HIBINO-BASE
  6
CONTINUOUS
 62
     7
 10
0.0000000000000142
 20
-236.49121472222211
 30
0.0
 11
179.99999999999989
 21
-236.49121472222211
 31
0.0
  0
TEXT
  5
36
  8
HIBINO-BASE
 62
     7
 10
96.799999999999983
 20
-241.39596138888879
 30
0.0
 40
3.2576822916666659
  1
DRAWN
 41
0.7
 11
96.799999999999983
 21
-238.1382790972221
 31
0.0
 73
     3
  0
TEXT
  5
37
  8
HIBINO-BASE
 62
     7
 10
46.799999999999983
 20
-241.39596138888879
 30
0.0
 40
3.2576822916666659
  1
DATE
 41
0.7
 11
46.799999999999983
 21
-238.1382790972221
 31
0.0
 73
     3
  0
TEXT
  5
38
  8
HIBINO-BASE
 62
     7
 10
26.800000000000001
 20
-241.39596138888879
 30
0.0
 40
3.2576822916666659
  1
SCALE
 41
0.7
 11
26.800000000000001
 21
-238.1382790972221
 31
0.0
 73
     3
  0
TEXT
  5
39
  8
HIBINO-BASE
 62
     7
 10
71.799999999999983
 20
-241.39596138888879
 30
0.0
 40
3.2576822916666659
  1
DESIGN
 41
0.7
 11
71.799999999999983
 21
-238.1382790972221
 31
0.0
 73
     3
  0
TEXT
  5
3A
  8
HIBINO-BASE
 62
     7
 10
146.7999999999999
 20
-241.39596138888879
 30
0.0
 40
3.2576822916666659
  1
DRAWING NO.
 41
0.7
 11
146.7999999999999
 21
-238.1382790972221
 31
0.0
 73
     3
  0
TEXT
  5
3B
  8
HIBINO-BASE
 62
     7
 10
121.7999999999999
 20
-241.39596138888879
 30
0.0
 40
3.2576822916666659
  1
CHECK
 41
0.7
 11
121.7999999999999
 21
-238.1382790972221
 31
0.0
 73
     3
  0
LINE
  5
3C
  8
HIBINO-BASE
  6
CONTINUOUS
 62
     7
 10
28.750000000000011
 20
-253.99121472222211
 30
0.0
 11
36.250000000000028
 21
-246.49121472222211
 31
0.0
  0
TEXT
  5
3D
  8
HIBINO-BASE
 62
     7
 10
27.500000000000011
 20
-248.70910138888891
 30
0.0
 40
3.2576822916666659
  1
1
 41
0.7
 11
27.500000000000011
 21
-245.45141909722221
 31
0.0
 73
     3
  0
LINE
  5
3E
  8
HIBINO-BASE
  6
CONTINUOUS
 62
     7
 10
25.000000000000011
 20
-256.4912147222222
 30
0.0
 11
25.000000000000011
 21
-236.49121472222211
 31
0.0
  0
LINE
  5
3F
  8
HIBINO-BASE
  6
CONTINUOUS
 62
     7
 10
44.999999999999979
 20
-256.4912147222222
 30
0.0
 11
44.999999999999979
 21
-236.49121472222211
 31
0.0
  0
LINE
  5
40
  8
HIBINO-BASE
  6
CONTINUOUS
 62
     7
 10
94.999999999999957
 20
-236.49121472222211
 30
0.0
 11
94.999999999999957
 21
-256.4912147222222
 31
0.0
  0
LINE
  5
41
  8
HIBINO-BASE
  6
CONTINUOUS
 62
     7
 10
145.0
 20
-236.49121472222211
 30
0.0
 11
145.0
 21
-256.4912147222222
 31
0.0
  0
LINE
  5
42
  8
HIBINO-BASE
  6
CONTINUOUS
 62
     7
 10
119.9999999999999
 20
-256.4912147222222
 30
0.0
 11
119.9999999999999
 21
-236.49121472222211
 31
0.0
  0
TEXT
  5
43
  8
HIBINO-BASE
 62
     7
 10
46.713080000000019
 20
-250.7639213888888
 30
0.0
 40
3.2576822916666659
  1
'14.02.
 41
0.7
 11
46.713080000000019
 21
-247.50623909722219
 31
0.0
 73
     3
  0
TEXT
  5
44
  8
HIBINO-BASE
 62
     7
 10
35.000000000000007
 20
-252.45910138888891
 30
0.0
 40
3.2576822916666659
  1
2
 41
0.7
 11
35.000000000000007
 21
-249.20141909722221
 31
0.0
 73
     3
  0
TEXT
  5
45
  8
HIBINO-BASE
 62
     7
 10
98.011620022069224
 20
-250.7639213888888
 30
0.0
 40
3.2576822916666659
  1
Ootake
 41
0.7
 11
98.011620022069224
 21
-247.50623909722219
 31
0.0
 73
     3
  0
TEXT
  5
46
  8
HIBINO-BASE
 62
     7
 10
7.7666666666667208
 20
-252.5392147222222
 30
0.0
 40
6.5153645833333318
  1
A4
 41
0.7
 11
7.7666666666667208
 21
-246.0238501388888
 31
0.0
 73
     3
  0
TEXT
  5
47
  8
HIBINO-BASE
 62
     7
 10
1.916666666666671
 20
-241.7301247222222
 30
0.0
 40
3.2576822916666659
  1
PAPER SIZE
 41
0.7
 11
1.916666666666671
 21
-238.4724424305555
 31
0.0
 73
     3
  0
TEXT
  5
48
  8
HIBINO-BASE
 62
     7
 10
-164.59999999999999
 20
-268.74655560000002
 30
0.0
 40
7.2000883593749991
  1
Hibino Corporation
 41
0.7
 11
-164.59999999999999
 21
-261.54646724062502
 31
0.0
 73
     3
  0
TEXT
  5
49
  8
HIBINO-BASE
 62
     7
 10
85.752386474609352
 20
-268.50397576094713
 30
0.0
 40
7.2000883593749991
  1
ヒビノ株式会社
 41
0.7
 11
85.752386474609352
 21
-261.30388740157213
 31
0.0
 73
     3
  0
LINE
  5
4A
  8
SPEC
  6
CONTINUOUS
 62
     7
 10
-164.99999999999989
 20
243.5087852777778
 30
0.0
 11
130.0
 21
243.5087852777778
 31
0.0
  0
LINE
  5
4B
  8
SPEC
  6
CONTINUOUS
 62
     7
 10
-130.0
 20
236.0087852777778
 30
0.0
 11
130.0
 21
236.0087852777778
 31
0.0
  0
LINE
  5
4C
  8
SPEC
  6
CONTINUOUS
 62
     7
 10
-164.99999999999989
 20
243.5087852777778
 30
0.0
 11
-164.99999999999989
 21
176.0087852777778
 31
0.0
  0
TEXT
  5
4D
  8
SPEC
 62
     7
 10
-162.49999999999989
 20
246.29532527777769
 30
0.0
 40
4.8865234375000002
  1
仕様
 41
0.7
 11
-162.49999999999989
 21
251.18184871527779
 31
0.0
 73
     3
  0
LINE
  5
4E
  8
SPEC
  6
CONTINUOUS
 62
     7
 10
-85.0
 20
243.5087852777778
 30
0.0
 11
-85.0
 21
176.0087852777778
 31
0.0
  0
LINE
  5
4F
  8
SPEC
  6
CONTINUOUS
 62
     7
 10
130.0
 20
243.5087852777778
 30
0.0
 11
130.0
 21
176.0087852777778
 31
0.0
  0
TEXT
  5
50
  8
SPEC
 62
     7
 10
-163.19999999999999
 20
185.0846208333333
 30
0.0
 40
3.8006293402777769
  1
付属品
 41
0.7
 11
-163.19999999999999
 21
188.8852501736111
 31
0.0
 73
     3
  0
TEXT
  5
51
  8
SPEC
 62
     7
 10
-163.19999999999999
 20
200.0846208333333
 30
0.0
 40
3.8006293402777769
  1
寸法(W\U+00D7H\U+00D7D)
 41
0.7
 11
-163.19999999999999
 21
203.8852501736111
 31
0.0
 73
     3
  0
TEXT
  5
52
  8
SPEC
 62
     7
 10
-163.19999999999999
 20
192.5846208333333
 30
0.0
 40
3.8006293402777769
  1
質量
 41
0.7
 11
-163.19999999999999
 21
196.3852501736111
 31
0.0
 73
     3
  0
TEXT
  5
53
  8
SPEC
 62
     7
 10
-83.200000000000031
 20
200.0846208333333
 30
0.0
 40
3.8006293402777769
  1
65.0\U+00D7126\U+00D729.0mm(除突起部)
 41
0.7
 11
-83.200000000000031
 21
203.8852501736111
 31
0.0
 73
     3
  0
LINE
  5
54
  8
SPEC
  6
CONTINUOUS
 62
     7
 10
-164.99999999999989
 20
228.5087852777778
 30
0.0
 11
130.0
 21
228.5087852777778
 31
0.0
  0
LINE
  5
55
  8
SPEC
  6
CONTINUOUS
 62
     7
 10
-164.99999999999989
 20
221.0087852777778
 30
0.0
 11
130.0
 21
221.0087852777778
 31
0.0
  0
LINE
  5
56
  8
SPEC
  6
CONTINUOUS
 62
     7
 10
-164.99999999999989
 20
206.0087852777778
 30
0.0
 11
130.0
 21
206.0087852777778
 31
0.0
  0
LINE
  5
57
  8
SPEC
  6
CONTINUOUS
 62
     7
 10
-164.99999999999989
 20
198.5087852777778
 30
0.0
 11
130.0
 21
198.5087852777778
 31
0.0
  0
LINE
  5
58
  8
SPEC
  6
CONTINUOUS
 62
     7
 10
-164.99999999999989
 20
191.0087852777778
 30
0.0
 11
130.0
 21
191.0087852777778
 31
0.0
  0
LINE
  5
59
  8
SPEC
  6
CONTINUOUS
 62
     7
 10
-164.99999999999989
 20
176.0087852777778
 30
0.0
 11
130.0
 21
176.0087852777778
 31
0.0
  0
TEXT
  5
5A
  8
SPEC
 62
     7
 10
-83.200000000000031
 20
185.0846208333333
 30
0.0
 40
3.8006293402777769
  1
ボディーパック型送信機用接続ケーブル(ミニXLRメス→ミニXLRメス)、
 41
0.7
 11
-83.200000000000031
 21
188.8852501736111
 31
0.0
 73
     3
  0
TEXT
  5
5B
  8
SPEC
 62
     7
 10
-163.19999999999999
 20
237.5846208333333
 30
0.0
 40
3.8006293402777769
  1
音声入力
 41
0.7
 11
-163.19999999999999
 21
241.3852501736111
 31
0.0
 73
     3
  0
TEXT
  5
5C
  8
SPEC
 62
     7
 10
-83.200000000000031
 20
237.5846208333333
 30
0.0
 40
3.8006293402777769
  1
XLR 3ピン(メス)
 41
0.7
 11
-83.200000000000031
 21
241.3852501736111
 31
0.0
 73
     3
  0
TEXT
  5
5D
  8
SPEC
 62
     7
 10
-128.19999999999999
 20
237.5846208333333
 30
0.0
 40
3.8006293402777769
  1
端子
 41
0.7
 11
-128.19999999999999
 21
241.3852501736111
 31
0.0
 73
     3
  0
TEXT
  5
5E
  8
SPEC
 62
     7
 10
-83.200000000000031
 20
230.0846208333333
 30
0.0
 40
3.8006293402777769
  1
48V(最大10mA)
 41
0.7
 11
-83.200000000000031
 21
233.8852501736111
 31
0.0
 73
     3
  0
LINE
  5
5F
  8
SPEC
  6
CONTINUOUS
 62
     7
 10
-130.0
 20
243.5087852777778
 30
0.0
 11
-130.0
 21
221.0087852777778
 31
0.0
  0
TEXT
  5
60
  8
SPEC
 62
     7
 10
-163.19999999999999
 20
222.5846208333333
 30
0.0
 40
3.8006293402777769
  1
音声出力
 41
0.7
 11
-163.19999999999999
 21
226.3852501736111
 31
0.0
 73
     3
  0
TEXT
  5
61
  8
SPEC
 62
     7
 10
-128.19999999999999
 20
230.0846208333333
 30
0.0
 40
3.8006293402777769
  1
ファンタム電源
 41
0.7
 11
-128.19999999999999
 21
233.8852501736111
 31
0.0
 73
     3
  0
TEXT
  5
62
  8
SPEC
 62
     7
 10
-128.19999999999999
 20
222.5846208333333
 30
0.0
 40
3.8006293402777769
  1
端子
 41
0.7
 11
-128.19999999999999
 21
226.3852501736111
 31
0.0
 73
     3
  0
TEXT
  5
63
  8
SPEC
 62
     7
 10
-83.200000000000031
 20
222.5846208333333
 30
0.0
 40
3.8006293402777769
  1
XLR 3ピン(オス)またはミニXLR 3ピン(オス)
 41
0.7
 11
-83.200000000000031
 21
226.3852501736111
 31
0.0
 73
     3
  0
TEXT
  5
64
  8
SPEC
 62
     7
 10
-163.19999999999999
 20
215.0846208333333
 30
0.0
 40
3.8006293402777769
  1
電源
 41
0.7
 11
-163.19999999999999
 21
218.8852501736111
 31
0.0
 73
     3
  0
TEXT
  5
65
  8
SPEC
 62
     7
 10
-83.200000000000031
 20
215.0846208333333
 30
0.0
 40
3.8006293402777769
  1
単3形アルカリ乾電池\U+00D72または単3形リチウム乾電池\U+00D72または
 41
0.7
 11
-83.200000000000031
 21
218.8852501736111
 31
0.0
 73
     3
  0
TEXT
  5
66
  8
SPEC
 62
     7
 10
-83.200000000000031
 20
207.5846208333333
 30
0.0
 40
3.8006293402777769
  1
単3形ニッケル水素充電池\U+00D72(電池寿命は接続したマイクロホンによって異なる)
 41
0.7
 11
-83.200000000000031
 21
211.3852501736111
 31
0.0
 73
     3
  0
TEXT
  5
67
  8
SPEC
 62
     7
 10
-83.200000000000031
 20
192.5846208333333
 30
0.0
 40
3.8006293402777769
  1
120g(除乾電池)
 41
0.7
 11
-83.200000000000031
 21
196.3852501736111
 31
0.0
 73
     3
  0
TEXT
  5
68
  8
SPEC
 62
     7
 10
-83.200000000000031
 20
177.5846208333333
 30
0.0
 40
3.8006293402777769
  1
マジックテープ\U+00D72組、単3形アルカリ乾電池\U+00D72
 41
0.7
 11
-83.200000000000031
 21
181.3852501736111
 31
0.0
 73
     3
  0
TEXT
  5
69
  8
DIMNSIONS
 62
     7
 10
-40.0
 20
-231.9522347222221
 30
0.0
 40
4.8865234374999993
  1
(単位：mm)
 41
0.7
 11
-40.0
 21
-227.06571128472211
 31
0.0
 73
     3
  0
LINE
  5
6A
  8
DIMNSIONS
  6
CONTINUOUS
 62
     7
 10
-114.0
 20
-120.0
 30
0.0
 11
-144.0
 21
-120.0
 31
0.0
  0
LINE
  5
6B
  8
DIMNSIONS
  6
CONTINUOUS
 62
     7
 10
-89.400000000000006
 20
6.0
 30
0.0
 11
-144.0
 21
6.0
 31
0.0
  0
LINE
  5
6C
  8
DIMNSIONS
  6
CONTINUOUS
 62
     7
 10
-140.0
 20
-120.0
 30
0.0
 11
-140.0
 21
6.0
 31
0.0
  0
LINE
  5
6D
  8
DIMNSIONS
  6
CONTINUOUS
 62
     7
 10
-140.0
 20
-120.0
 30
0.0
 11
-141.34007959030041
 21
-114.99875488281251
 31
0.0
  0
LINE
  5
6E
  8
DIMNSIONS
  6
CONTINUOUS
 62
     7
 10
-140.0
 20
-120.0
 30
0.0
 11
-138.65992040969951
 21
-114.99875488281251
 31
0.0
  0
LINE
  5
6F
  8
DIMNSIONS
  6
CONTINUOUS
 62
     7
 10
-140.0
 20
6.0
 30
0.0
 11
-138.65992040969951
 21
0.9987548828125004
 31
0.0
  0
LINE
  5
70
  8
DIMNSIONS
  6
CONTINUOUS
 62
     7
 10
-140.0
 20
6.0
 30
0.0
 11
-141.34007959030041
 21
0.9987548828125004
 31
0.0
  0
TEXT
  5
71
  8
DIMNSIONS
 62
     7
 10
-141.98777777777769
 20
-62.291666666666657
 30
0.0
 40
5.4294704861111107
  1
126
 50
90.0
 41
0.7
 11
-147.41724826388881
 21
-62.291666666666657
 31
0.0
 73
     3
  0
LINE
  5
72
  8
DIMNSIONS
  6
CONTINUOUS
 62
     7
 10
-112.0
 20
-120.0
 30
0.0
 11
-134.0
 21
-120.0
 31
0.0
  0
LINE
  5
73
  8
DIMNSIONS
  6
CONTINUOUS
 62
     7
 10
-95.630075923784517
 20
-27.0
 30
0.0
 11
-134.0
 21
-27.0
 31
0.0
  0
LINE
  5
74
  8
DIMNSIONS
  6
CONTINUOUS
 62
     7
 10
-130.0
 20
-120.0
 30
0.0
 11
-130.0
 21
-27.0
 31
0.0
  0
LINE
  5
75
  8
DIMNSIONS
  6
CONTINUOUS
 62
     7
 10
-130.0
 20
-120.0
 30
0.0
 11
-131.34007959030049
 21
-114.99875488281251
 31
0.0
  0
LINE
  5
76
  8
DIMNSIONS
  6
CONTINUOUS
 62
     7
 10
-130.0
 20
-120.0
 30
0.0
 11
-128.65992040969951
 21
-114.99875488281251
 31
0.0
  0
LINE
  5
77
  8
DIMNSIONS
  6
CONTINUOUS
 62
     7
 10
-130.0
 20
-27.0
 30
0.0
 11
-128.65992040969951
 21
-32.001245117187501
 31
0.0
  0
LINE
  5
78
  8
DIMNSIONS
  6
CONTINUOUS
 62
     7
 10
-130.0
 20
-27.0
 30
0.0
 11
-131.34007959030049
 21
-32.001245117187501
 31
0.0
  0
TEXT
  5
79
  8
DIMNSIONS
 62
     7
 10
-131.98777780721579
 20
-80.555555555555543
 30
0.0
 40
5.4294706479219572
  1
93.0
 50
90.0
 41
0.7
 11
-137.41724845513781
 21
-80.555555555555543
 31
0.0
 73
     3
  0
LINE
  5
7A
  8
DIMNSIONS
  6
CONTINUOUS
 62
     7
 10
-107.49999999254941
 20
-190.0
 30
0.0
 11
-133.90000000000001
 21
-190.0
 31
0.0
  0
LINE
  5
7B
  8
DIMNSIONS
  6
CONTINUOUS
 62
     7
 10
-104.09999999999999
 20
-161.0132249986568
 30
0.0
 11
-133.90000000000001
 21
-161.0132249986568
 31
0.0
  0
LINE
  5
7C
  8
DIMNSIONS
  6
CONTINUOUS
 62
     7
 10
-129.90000000000001
 20
-190.0
 30
0.0
 11
-129.90000000000001
 21
-161.0132249986568
 31
0.0
  0
LINE
  5
7D
  8
DIMNSIONS
  6
CONTINUOUS
 62
     7
 10
-129.90000000000001
 20
-190.0
 30
0.0
 11
-131.2400795903005
 21
-184.99875488281239
 31
0.0
  0
LINE
  5
7E
  8
DIMNSIONS
  6
CONTINUOUS
 62
     7
 10
-129.90000000000001
 20
-190.0
 30
0.0
 11
-128.55992040969949
 21
-184.99875488281239
 31
0.0
  0
LINE
  5
7F
  8
DIMNSIONS
  6
CONTINUOUS
 62
     7
 10
-129.90000000000001
 20
-161.0132249986568
 30
0.0
 11
-128.55992040969949
 21
-166.01447011584429
 31
0.0
  0
LINE
  5
80
  8
DIMNSIONS
  6
CONTINUOUS
 62
     7
 10
-129.90000000000001
 20
-161.0132249986568
 30
0.0
 11
-131.2400795903005
 21
-166.01447011584429
 31
0.0
  0
TEXT
  5
81
  8
DIMNSIONS
 62
     7
 10
-131.8877778072158
 20
-182.56216805488401
 30
0.0
 40
5.4294706479219572
  1
29.0
 50
90.0
 41
0.7
 11
-137.31724845513779
 21
-182.56216805488401
 31
0.0
 73
     3
  0
LINE
  5
82
  8
DIMNSIONS
  6
CONTINUOUS
 62
     7
 10
-110.0
 20
-122.0
 30
0.0
 11
-110.0
 21
-144.0
 31
0.0
  0
LINE
  5
83
  8
DIMNSIONS
  6
CONTINUOUS
 62
     7
 10
-45.0
 20
-122.0
 30
0.0
 11
-45.0
 21
-144.0
 31
0.0
  0
LINE
  5
84
  8
DIMNSIONS
  6
CONTINUOUS
 62
     7
 10
-110.0
 20
-140.0
 30
0.0
 11
-45.0
 21
-140.0
 31
0.0
  0
LINE
  5
85
  8
DIMNSIONS
  6
CONTINUOUS
 62
     7
 10
-110.0
 20
-140.0
 30
0.0
 11
-104.99875488281251
 21
-138.65992040969951
 31
0.0
  0
LINE
  5
86
  8
DIMNSIONS
  6
CONTINUOUS
 62
     7
 10
-110.0
 20
-140.0
 30
0.0
 11
-104.99875488281251
 21
-141.34007959030041
 31
0.0
  0
LINE
  5
87
  8
DIMNSIONS
  6
CONTINUOUS
 62
     7
 10
-45.0
 20
-140.0
 30
0.0
 11
-50.001245117187501
 21
-141.34007959030041
 31
0.0
  0
LINE
  5
88
  8
DIMNSIONS
  6
CONTINUOUS
 62
     7
 10
-45.0
 20
-140.0
 30
0.0
 11
-50.001245117187501
 21
-138.65992040969951
 31
0.0
  0
TEXT
  5
89
  8
DIMNSIONS
 62
     7
 10
-84.555555555555529
 20
-138.01222219278409
 30
0.0
 40
5.4294706479219572
  1
65.0
 41
0.7
 11
-84.555555555555529
 21
-132.58275154486219
 31
0.0
 73
     3
  0
LINE
  5
8A
  8
DIMNSIONS
  6
CONTINUOUS
 62
     7
 10
-112.0
 20
-120.0
 30
0.0
 11
-134.0
 21
-120.0
 31
0.0
  0
LINE
  5
8B
  8
DIMNSIONS
  6
CONTINUOUS
 62
     7
 10
-106.5
 20
-121.0
 30
0.0
 11
-134.0
 21
-121.0
 31
0.0
  0
LINE
  5
8C
  8
DIMNSIONS
  6
CONTINUOUS
 62
     7
 10
-130.0
 20
-121.0
 30
0.0
 11
-130.0
 21
-120.0
 31
0.0
  0
LINE
  5
8D
  8
DIMNSIONS
  6
CONTINUOUS
 62
     7
 10
-130.0
 20
-120.0
 30
0.0
 11
-130.0
 21
-110.0
 31
0.0
  0
LINE
  5
8E
  8
DIMNSIONS
  6
CONTINUOUS
 62
     7
 10
-130.0
 20
-120.0
 30
0.0
 11
-131.34007959030049
 21
-114.99875488281251
 31
0.0
  0
LINE
  5
8F
  8
DIMNSIONS
  6
CONTINUOUS
 62
     7
 10
-130.0
 20
-120.0
 30
0.0
 11
-128.65992040969951
 21
-114.99875488281251
 31
0.0
  0
LINE
  5
90
  8
DIMNSIONS
  6
CONTINUOUS
 62
     7
 10
-130.0
 20
-121.0
 30
0.0
 11
-130.0
 21
-133.08333333333329
 31
0.0
  0
LINE
  5
91
  8
DIMNSIONS
  6
CONTINUOUS
 62
     7
 10
-130.0
 20
-121.0
 30
0.0
 11
-128.65992040969951
 21
-126.00124511718749
 31
0.0
  0
LINE
  5
92
  8
DIMNSIONS
  6
CONTINUOUS
 62
     7
 10
-130.0
 20
-121.0
 30
0.0
 11
-131.34007959030049
 21
-126.00124511718749
 31
0.0
  0
TEXT
  5
93
  8
DIMNSIONS
 62
     7
 10
-131.98777777777769
 20
-133.08333333333329
 30
0.0
 40
5.4294704861111107
  1
1.0
 50
90.0
 41
0.7
 11
-137.41724826388881
 21
-133.08333333333329
 31
0.0
 73
     3
  0
TEXT
  5
94
  8
DATA
 62
     7
 10
99.999999999999957
 20
-234.22943472222209
 30
0.0
 40
4.8865234374999993
  1
B48 L
 41
0.7
 11
99.999999999999957
 21
-229.34291128472211
 31
0.0
 73
     3
  0
TEXT
  5
95
  8
DATA
 62
     7
 10
99.999999999999957
 20
-219.72943472222209
 30
0.0
 40
4.8865234374999993
  1
AKG
 41
0.7
 11
99.999999999999957
 21
-214.84291128472211
 31
0.0
 73
     3
  0
TEXT
  5
96
  8
DATA
 62
     7
 10
-174.99999999999989
 20
-240.73865916666659
 30
0.0
 40
3.8006293402777769
  1
※仕様及び外観は予告なく変更されることがあります。
 41
0.7
 11
-174.99999999999989
 21
-236.93802982638891
 31
0.0
 73
     3
  0
TEXT
  5
97
  8
DATA
 62
     7
 10
-174.99999999999989
 20
-245.67754805555541
 30
0.0
 40
3.8006293402777769
  1
　また、同一商品でも若干の個体差があることがあります。ご了承ください。
 41
0.7
 11
-174.99999999999989
 21
-241.8769187152777
 31
0.0
 73
     3
  0
LINE
  5
98
  8
DATA
  6
CONTINUOUS
 62
     7
 10
-108.0
 20
-120.0
 30
0.0
 11
-47.0
 21
-120.0
 31
0.0
  0
LINE
  5
99
  8
DATA
  6
CONTINUOUS
 62
     7
 10
-110.0
 20
-118.0
 30
0.0
 11
-110.0
 21
-41.0
 31
0.0
  0
LINE
  5
9A
  8
DATA
  6
CONTINUOUS
 62
     7
 10
-45.0
 20
-118.0
 30
0.0
 11
-45.0
 21
-41.0
 31
0.0
  0
LINE
  5
9B
  8
DATA
  6
CONTINUOUS
 62
     7
 10
-91.630075923784517
 20
-27.0
 30
0.0
 11
-63.369924076215469
 21
-27.0
 31
0.0
  0
LINE
  5
9C
  8
DATA
  6
CONTINUOUS
 62
     7
 10
-85.400000000000006
 20
-27.0
 30
0.0
 11
-85.400000000000006
 21
-21.0
 31
0.0
  0
LINE
  5
9D
  8
DATA
  6
CONTINUOUS
 62
     7
 10
-85.400000000000006
 20
-5.999999999999992
 30
0.0
 11
-85.400000000000006
 21
5.2999999999999998
 31
0.0
  0
LINE
  5
9E
  8
DATA
  6
CONTINUOUS
 62
     7
 10
-69.599999999999994
 20
5.2999999895691872
 30
0.0
 11
-69.599999999999994
 21
-6.0
 31
0.0
  0
LINE
  5
9F
  8
DATA
  6
CONTINUOUS
 62
     7
 10
-69.599999999999994
 20
-21.0
 30
0.0
 11
-69.599999999999994
 21
-27.0
 31
0.0
  0
LINE
  5
A0
  8
DATA
  6
CONTINUOUS
 62
     7
 10
-84.700000000000003
 20
6.0
 30
0.0
 11
-70.300000010430821
 21
6.0
 31
0.0
  0
LINE
  5
A1
  8
DATA
  6
CONTINUOUS
 62
     7
 10
-90.0
 20
-16.79999999999999
 30
0.0
 11
-90.0
 21
-8.9999999999999911
 31
0.0
  0
LINE
  5
A2
  8
DATA
  6
CONTINUOUS
 62
     7
 10
-66.000000007450581
 20
-21.0
 30
0.0
 11
-88.999999992549434
 21
-21.0
 31
0.0
  0
LINE
  5
A3
  8
DATA
  6
CONTINUOUS
 62
     7
 10
-65.0
 20
-9.0
 30
0.0
 11
-65.0
 21
-16.79999999999999
 31
0.0
  0
LINE
  5
A4
  8
DATA
  6
CONTINUOUS
 62
     7
 10
-89.0
 20
-6.0
 30
0.0
 11
-66.000000007450581
 21
-6.0
 31
0.0
  0
CIRCLE
  5
A5
  8
DATA
  6
CONTINUOUS
 62
     7
 10
-77.5
 20
-72.0
 30
0.0
 40
2.5
  0
CIRCLE
  5
A6
  8
DATA
  6
CONTINUOUS
 62
     7
 10
-77.5
 20
-72.0
 30
0.0
 40
5.0
  0
CIRCLE
  5
A7
  8
DATA
  6
CONTINUOUS
 62
     7
 10
-85.100000000000037
 20
-72.0
 30
0.0
 40
2.0
  0
CIRCLE
  5
A8
  8
DATA
  6
CONTINUOUS
 62
     7
 10
-69.899999999999991
 20
-72.0
 30
0.0
 40
2.0
  0
LINE
  5
A9
  8
DATA
  6
CONTINUOUS
 62
     7
 10
-96.0
 20
-119.0
 30
0.0
 11
-96.0
 21
-30.42857142857142
 31
0.0
  0
LINE
  5
AA
  8
DATA
  6
CONTINUOUS
 62
     7
 10
-59.0
 20
-119.0
 30
0.0
 11
-59.0
 21
-30.42857142857142
 31
0.0
  0
LINE
  5
AB
  8
DATA
  6
CONTINUOUS
 62
     7
 10
-99.0
 20
-119.0
 30
0.0
 11
-99.0
 21
-33.0
 31
0.0
  0
LINE
  5
AC
  8
DATA
  6
CONTINUOUS
 62
     7
 10
-56.0
 20
-119.0
 30
0.0
 11
-56.0
 21
-33.0
 31
0.0
  0
LINE
  5
AD
  8
DATA
  6
CONTINUOUS
 62
     7
 10
-102.5911007526968
 20
-77.0
 30
0.0
 11
-110.0
 21
-77.0
 31
0.0
  0
LINE
  5
AE
  8
DATA
  6
CONTINUOUS
 62
     7
 10
-102.5911007526968
 20
-62.0
 30
0.0
 11
-110.0
 21
-62.0
 31
0.0
  0
LINE
  5
AF
  8
DATA
  6
CONTINUOUS
 62
     7
 10
-101.0911007526968
 20
-75.5
 30
0.0
 11
-101.0911007526968
 21
-63.5
 31
0.0
  0
LINE
  5
B0
  8
DATA
  6
CONTINUOUS
 62
     7
 10
-103.5911007526968
 20
-75.5
 30
0.0
 11
-103.5911007526968
 21
-63.5
 31
0.0
  0
ARC
  5
B1
  8
DATA
  6
CONTINUOUS
 62
     7
 10
-102.5911007526968
 20
-63.5
 30
0.0
 40
1.5
 50
0.0
 51
90.0
  0
ARC
  5
B2
  8
DATA
  6
CONTINUOUS
 62
     7
 10
-102.5911007526968
 20
-75.5
 30
0.0
 40
1.5
 50
270.0
 51
0.0
  0
ARC
  5
B3
  8
DATA
  6
CONTINUOUS
 62
     7
 10
-105.0911007526968
 20
-63.5
 30
0.0
 40
1.5
 50
0.0
 51
90.0
  0
ARC
  5
B4
  8
DATA
  6
CONTINUOUS
 62
     7
 10
-105.0911007526968
 20
-75.5
 30
0.0
 40
1.5
 50
270.0
 51
0.0
  0
LINE
  5
B5
  8
DATA
  6
CONTINUOUS
 62
     7
 10
-103.0
 20
-120.0
 30
0.0
 11
-103.0
 21
-120.5
 31
0.0
  0
LINE
  5
B6
  8
DATA
  6
CONTINUOUS
 62
     7
 10
-91.0
 20
-120.0
 30
0.0
 11
-91.0
 21
-120.5
 31
0.0
  0
LINE
  5
B7
  8
DATA
  6
CONTINUOUS
 62
     7
 10
-102.5
 20
-121.0
 30
0.0
 11
-91.5
 21
-121.0
 31
0.0
  0
ARC
  5
B8
  8
DATA
  6
CONTINUOUS
 62
     7
 10
-108.0
 20
-118.0
 30
0.0
 40
2.0
 50
180.0
 51
270.0
  0
ARC
  5
B9
  8
DATA
  6
CONTINUOUS
 62
     7
 10
-47.0
 20
-118.0
 30
0.0
 40
2.0
 50
270.0
 51
0.0
  0
LINE
  5
BA
  8
DATA
  6
CONTINUOUS
 62
     7
 10
-88.0
 20
-102.0
 30
0.0
 11
-67.0
 21
-102.0
 31
0.0
  0
LINE
  5
BB
  8
DATA
  6
CONTINUOUS
 62
     7
 10
-89.0
 20
-90.5
 30
0.0
 11
-89.0
 21
-101.0
 31
0.0
  0
LINE
  5
BC
  8
DATA
  6
CONTINUOUS
 62
     7
 10
-66.0
 20
-90.5
 30
0.0
 11
-66.0
 21
-101.0
 31
0.0
  0
LINE
  5
BD
  8
DATA
  6
CONTINUOUS
 62
     7
 10
-88.0
 20
-89.500000000000014
 30
0.0
 11
-67.0
 21
-89.500000000000014
 31
0.0
  0
ARC
  5
BE
  8
DATA
  6
CONTINUOUS
 62
     7
 10
-88.0
 20
-90.5
 30
0.0
 40
1.0
 50
90.0
 51
180.0
  0
ARC
  5
BF
  8
DATA
  6
CONTINUOUS
 62
     7
 10
-67.0
 20
-90.5
 30
0.0
 40
1.0
 50
0.0
 51
90.0
  0
ARC
  5
C0
  8
DATA
  6
CONTINUOUS
 62
     7
 10
-88.0
 20
-101.0
 30
0.0
 40
1.0
 50
180.0
 51
270.0
  0
ARC
  5
C1
  8
DATA
  6
CONTINUOUS
 62
     7
 10
-67.0
 20
-101.0
 30
0.0
 40
1.0
 50
270.0
 51
0.0
  0
TEXT
  5
C2
  8
DATA
 62
     7
 10
-79.245764726017484
 20
-98.368625531603882
 30
0.0
 40
5.4294704861111107
  1
K
 41
0.7
 11
-79.245764726017484
 21
-92.939155045492768
 31
0.0
 73
     3
  0
TEXT
  5
C3
  8
DATA
 62
     7
 10
-84.779663256350091
 20
-98.368625531603882
 30
0.0
 40
5.4294704861111107
  1
A
 41
0.7
 11
-84.779663256350091
 21
-92.939155045492768
 31
0.0
 73
     3
  0
TEXT
  5
C4
  8
DATA
 62
     7
 10
-73.711866195684934
 20
-98.368625531603882
 30
0.0
 40
5.4294704861111107
  1
G
 41
0.7
 11
-73.711866195684934
 21
-92.939155045492768
 31
0.0
 73
     3
  0
TEXT
  5
C5
  8
DATA
 62
     7
 10
-83.721352124962266
 20
-109.2406854582955
 30
0.0
 40
4.8865234375000002
  1
B48L
 41
0.7
 11
-83.721352124962266
 21
-104.3541620207955
 31
0.0
 73
     3
  0
TEXT
  5
C6
  8
DATA
 62
     7
 10
-81.289273767471812
 20
-65.177712175939817
 30
0.0
 40
1.935063281249999
  1
ON/OFF
 41
0.7
 11
-81.289273767471812
 21
-63.242648894689808
 31
0.0
 73
     3
  0
TEXT
  5
C7
  8
DATA
 62
     7
 10
-87.625425854685275
 20
-78.792784547739217
 30
0.0
 40
1.548050624999999
  1
POWER
 41
0.7
 11
-87.625425854685275
 21
-77.244733922739215
 31
0.0
 73
     3
  0
TEXT
  5
C8
  8
DATA
 62
     7
 10
-73.432048119918448
 20
-78.792784547739217
 30
0.0
 40
1.548050624999999
  1
LOW BAT
 41
0.7
 11
-73.432048119918448
 21
-77.244733922739215
 31
0.0
 73
     3
  0
LINE
  5
C9
  8
DATA
  6
CONTINUOUS
 62
     7
 10
-108.0
 20
-39.0
 30
0.0
 11
-106.3699240762155
 21
-39.0
 31
0.0
  0
LINE
  5
CA
  8
DATA
  6
CONTINUOUS
 62
     7
 10
-48.630075923784517
 20
-39.0
 30
0.0
 11
-47.0
 21
-39.0
 31
0.0
  0
LINE
  5
CB
  8
DATA
  6
CONTINUOUS
 62
     7
 10
-105.7191327027595
 20
-38.759256602365298
 30
0.0
 11
-92.280867297240491
 21
-27.240743397634709
 31
0.0
  0
LINE
  5
CC
  8
DATA
  6
CONTINUOUS
 62
     7
 10
-49.280867297240498
 20
-38.759256602365298
 30
0.0
 11
-62.719132702759502
 21
-27.240743397634709
 31
0.0
  0
ARC
  5
CD
  8
DATA
  6
CONTINUOUS
 62
     7
 10
-108.0
 20
-41.0
 30
0.0
 40
2.0
 50
90.0
 51
180.0
  0
ARC
  5
CE
  8
DATA
  6
CONTINUOUS
 62
     7
 10
-47.0
 20
-41.0
 30
0.0
 40
2.0
 50
0.0
 51
90.0
  0
ARC
  5
CF
  8
DATA
  6
CONTINUOUS
 62
     7
 10
-106.3699240762155
 20
-38.0
 30
0.0
 40
1.0
 50
270.0
 51
310.6012946450046
  0
ARC
  5
D0
  8
DATA
  6
CONTINUOUS
 62
     7
 10
-48.630075923784517
 20
-38.0
 30
0.0
 40
1.000000000000004
 50
229.3987053549952
 51
270.0
  0
ARC
  5
D1
  8
DATA
  6
CONTINUOUS
 62
     7
 10
-91.630075923784517
 20
-28.0
 30
0.0
 40
1.0
 50
90.0
 51
130.6012946450046
  0
ARC
  5
D2
  8
DATA
  6
CONTINUOUS
 62
     7
 10
-63.369924076215469
 20
-28.0
 30
0.0
 40
1.000000000000004
 50
49.398705354995357
 51
90.0
  0
LINE
  5
D3
  8
DATA
  6
CONTINUOUS
 62
     7
 10
-108.0
 20
-119.0
 30
0.0
 11
-47.0
 21
-119.0
 31
0.0
  0
ARC
  5
D4
  8
DATA
  6
CONTINUOUS
 62
     7
 10
-108.0
 20
-117.0
 30
0.0
 40
2.0
 50
180.0
 51
270.0
  0
ARC
  5
D5
  8
DATA
  6
CONTINUOUS
 62
     7
 10
-47.0
 20
-117.0
 30
0.0
 40
2.0
 50
270.0
 51
0.0
  0
ARC
  5
D6
  8
DATA
  6
CONTINUOUS
 62
     7
 10
-56.37111641252649
 20
-14.759781488768541
 30
0.0
 40
30.67665302930439
 50
203.51615506011959
 51
224.604581615174
  0
ARC
  5
D7
  8
DATA
  6
CONTINUOUS
 62
     7
 10
-77.5
 20
-35.599023638345713
 30
0.0
 40
0.9999999999999966
 50
224.60458161517411
 51
315.3954183848258
  0
ARC
  5
D8
  8
DATA
  6
CONTINUOUS
 62
     7
 10
-98.62888358747351
 20
-14.759781488768541
 30
0.0
 40
30.676653029304379
 50
315.39541838482597
 51
336.4838449398805
  0
LINE
  5
D9
  8
DATA
  6
CONTINUOUS
 62
     7
 10
-79.0
 20
-6.0
 30
0.0
 11
-79.0
 21
1.0
 31
0.0
  0
LINE
  5
DA
  8
DATA
  6
CONTINUOUS
 62
     7
 10
-76.0
 20
1.0
 30
0.0
 11
-76.0
 21
-6.0
 31
0.0
  0
LINE
  5
DB
  8
DATA
  6
CONTINUOUS
 62
     7
 10
-79.0
 20
1.0
 30
0.0
 11
-76.0
 21
1.0
 31
0.0
  0
ARC
  5
DC
  8
DATA
  6
CONTINUOUS
 62
     7
 10
-84.700000000000003
 20
5.2999999999999998
 30
0.0
 40
0.6999999999999993
 50
90.0
 51
180.0
  0
ARC
  5
DD
  8
DATA
  6
CONTINUOUS
 62
     7
 10
-70.300000010430821
 20
5.2999999895691872
 30
0.0
 40
0.700000010430813
 50
0.0
 51
90.0
  0
LINE
  5
DE
  8
DATA
  6
CONTINUOUS
 62
     7
 10
-71.0
 20
6.0
 30
0.0
 11
-71.0
 21
-6.0
 31
0.0
  0
LINE
  5
DF
  8
DATA
  6
CONTINUOUS
 62
     7
 10
-71.799999999999983
 20
6.0
 30
0.0
 11
-71.799999999999983
 21
-6.0
 31
0.0
  0
LINE
  5
E0
  8
DATA
  6
CONTINUOUS
 62
     7
 10
-89.999999999999986
 20
-9.0
 30
0.0
 11
-65.0
 21
-9.0
 31
0.0
  0
LINE
  5
E1
  8
DATA
  6
CONTINUOUS
 62
     7
 10
-90.0
 20
-16.79999999999999
 30
0.0
 11
-65.000000000000014
 21
-16.79999999999999
 31
0.0
  0
LINE
  5
E2
  8
DATA
  6
CONTINUOUS
 62
     7
 10
-87.609982569671359
 20
-16.79999999999999
 30
0.0
 11
-87.609982569671359
 21
-9.0
 31
0.0
  0
LINE
  5
E3
  8
DATA
  6
CONTINUOUS
 62
     7
 10
-87.409982569671342
 20
-16.79999999999999
 30
0.0
 11
-87.409982569671342
 21
-9.0
 31
0.0
  0
LINE
  5
E4
  8
DATA
  6
CONTINUOUS
 62
     7
 10
-87.409982569671342
 20
-16.79999999999999
 30
0.0
 11
-87.409982569671342
 21
-9.0
 31
0.0
  0
LINE
  5
E5
  8
DATA
  6
CONTINUOUS
 62
     7
 10
-85.809982569671362
 20
-16.79999999999999
 30
0.0
 11
-85.809982569671362
 21
-9.0
 31
0.0
  0
LINE
  5
E6
  8
DATA
  6
CONTINUOUS
 62
     7
 10
-85.609982569671374
 20
-16.79999999999999
 30
0.0
 11
-85.609982569671374
 21
-9.0
 31
0.0
  0
LINE
  5
E7
  8
DATA
  6
CONTINUOUS
 62
     7
 10
-85.609982569671374
 20
-16.79999999999999
 30
0.0
 11
-85.609982569671374
 21
-9.0
 31
0.0
  0
LINE
  5
E8
  8
DATA
  6
CONTINUOUS
 62
     7
 10
-84.009982569671365
 20
-16.79999999999999
 30
0.0
 11
-84.009982569671365
 21
-9.0
 31
0.0
  0
LINE
  5
E9
  8
DATA
  6
CONTINUOUS
 62
     7
 10
-83.809982569671376
 20
-16.79999999999999
 30
0.0
 11
-83.809982569671376
 21
-9.0
 31
0.0
  0
LINE
  5
EA
  8
DATA
  6
CONTINUOUS
 62
     7
 10
-83.809982569671376
 20
-16.79999999999999
 30
0.0
 11
-83.809982569671376
 21
-9.0
 31
0.0
  0
LINE
  5
EB
  8
DATA
  6
CONTINUOUS
 62
     7
 10
-82.209982569671325
 20
-16.79999999999999
 30
0.0
 11
-82.209982569671325
 21
-9.0
 31
0.0
  0
LINE
  5
EC
  8
DATA
  6
CONTINUOUS
 62
     7
 10
-82.009982569671351
 20
-16.79999999999999
 30
0.0
 11
-82.009982569671351
 21
-9.0
 31
0.0
  0
LINE
  5
ED
  8
DATA
  6
CONTINUOUS
 62
     7
 10
-82.009982569671351
 20
-16.79999999999999
 30
0.0
 11
-82.009982569671351
 21
-9.0
 31
0.0
  0
LINE
  5
EE
  8
DATA
  6
CONTINUOUS
 62
     7
 10
-80.409982569671328
 20
-16.79999999999999
 30
0.0
 11
-80.409982569671328
 21
-9.0
 31
0.0
  0
LINE
  5
EF
  8
DATA
  6
CONTINUOUS
 62
     7
 10
-80.20998256967134
 20
-16.79999999999999
 30
0.0
 11
-80.20998256967134
 21
-9.0
 31
0.0
  0
LINE
  5
F0
  8
DATA
  6
CONTINUOUS
 62
     7
 10
-80.20998256967134
 20
-16.79999999999999
 30
0.0
 11
-80.20998256967134
 21
-9.0
 31
0.0
  0
LINE
  5
F1
  8
DATA
  6
CONTINUOUS
 62
     7
 10
-78.609982569671345
 20
-16.79999999999999
 30
0.0
 11
-78.609982569671345
 21
-9.0
 31
0.0
  0
LINE
  5
F2
  8
DATA
  6
CONTINUOUS
 62
     7
 10
-78.409982569671342
 20
-16.79999999999999
 30
0.0
 11
-78.409982569671342
 21
-9.0
 31
0.0
  0
LINE
  5
F3
  8
DATA
  6
CONTINUOUS
 62
     7
 10
-78.409982569671342
 20
-16.79999999999999
 30
0.0
 11
-78.409982569671342
 21
-9.0
 31
0.0
  0
LINE
  5
F4
  8
DATA
  6
CONTINUOUS
 62
     7
 10
-76.809982569671362
 20
-16.79999999999999
 30
0.0
 11
-76.809982569671362
 21
-9.0
 31
0.0
  0
LINE
  5
F5
  8
DATA
  6
CONTINUOUS
 62
     7
 10
-76.609982569671359
 20
-16.79999999999999
 30
0.0
 11
-76.609982569671359
 21
-9.0
 31
0.0
  0
LINE
  5
F6
  8
DATA
  6
CONTINUOUS
 62
     7
 10
-76.609982569671359
 20
-16.79999999999999
 30
0.0
 11
-76.609982569671359
 21
-9.0
 31
0.0
  0
LINE
  5
F7
  8
DATA
  6
CONTINUOUS
 62
     7
 10
-75.009982569671365
 20
-16.79999999999999
 30
0.0
 11
-75.009982569671365
 21
-9.0
 31
0.0
  0
LINE
  5
F8
  8
DATA
  6
CONTINUOUS
 62
     7
 10
-74.809982569671362
 20
-16.79999999999999
 30
0.0
 11
-74.809982569671362
 21
-9.0
 31
0.0
  0
LINE
  5
F9
  8
DATA
  6
CONTINUOUS
 62
     7
 10
-74.809982569671362
 20
-16.79999999999999
 30
0.0
 11
-74.809982569671362
 21
-9.0
 31
0.0
  0
LINE
  5
FA
  8
DATA
  6
CONTINUOUS
 62
     7
 10
-73.20998256967134
 20
-16.79999999999999
 30
0.0
 11
-73.20998256967134
 21
-9.0
 31
0.0
  0
LINE
  5
FB
  8
DATA
  6
CONTINUOUS
 62
     7
 10
-73.009982569671351
 20
-16.79999999999999
 30
0.0
 11
-73.009982569671351
 21
-9.0
 31
0.0
  0
LINE
  5
FC
  8
DATA
  6
CONTINUOUS
 62
     7
 10
-73.009982569671351
 20
-16.79999999999999
 30
0.0
 11
-73.009982569671351
 21
-9.0
 31
0.0
  0
LINE
  5
FD
  8
DATA
  6
CONTINUOUS
 62
     7
 10
-71.409982569671371
 20
-16.79999999999999
 30
0.0
 11
-71.409982569671371
 21
-9.0
 31
0.0
  0
LINE
  5
FE
  8
DATA
  6
CONTINUOUS
 62
     7
 10
-71.209982569671368
 20
-16.79999999999999
 30
0.0
 11
-71.209982569671368
 21
-9.0
 31
0.0
  0
LINE
  5
FF
  8
DATA
  6
CONTINUOUS
 62
     7
 10
-71.209982569671368
 20
-16.79999999999999
 30
0.0
 11
-71.209982569671368
 21
-9.0
 31
0.0
  0
LINE
  5
100
  8
DATA
  6
CONTINUOUS
 62
     7
 10
-69.609982569671359
 20
-16.79999999999999
 30
0.0
 11
-69.609982569671359
 21
-9.0
 31
0.0
  0
LINE
  5
101
  8
DATA
  6
CONTINUOUS
 62
     7
 10
-69.409982569671371
 20
-16.79999999999999
 30
0.0
 11
-69.409982569671371
 21
-9.0
 31
0.0
  0
LINE
  5
102
  8
DATA
  6
CONTINUOUS
 62
     7
 10
-69.409982569671342
 20
-16.79999999999999
 30
0.0
 11
-69.409982569671342
 21
-9.0
 31
0.0
  0
LINE
  5
103
  8
DATA
  6
CONTINUOUS
 62
     7
 10
-67.809982569671334
 20
-16.79999999999999
 30
0.0
 11
-67.809982569671334
 21
-9.0
 31
0.0
  0
LINE
  5
104
  8
DATA
  6
CONTINUOUS
 62
     7
 10
-67.609982569671359
 20
-16.79999999999999
 30
0.0
 11
-67.609982569671359
 21
-9.0
 31
0.0
  0
LINE
  5
105
  8
DATA
  6
CONTINUOUS
 62
     7
 10
-67.609982569671359
 20
-16.79999999999999
 30
0.0
 11
-67.609982569671359
 21
-9.0
 31
0.0
  0
LINE
  5
106
  8
DATA
  6
CONTINUOUS
 62
     7
 10
-66.009982569671351
 20
-16.79999999999999
 30
0.0
 11
-66.009982569671351
 21
-9.0
 31
0.0
  0
LINE
  5
107
  8
DATA
  6
CONTINUOUS
 62
     7
 10
-65.809982569671334
 20
-16.79999999999999
 30
0.0
 11
-65.809982569671334
 21
-9.0
 31
0.0
  0
LINE
  5
108
  8
DATA
  6
CONTINUOUS
 62
     7
 10
-65.809982569671334
 20
-16.79999999999999
 30
0.0
 11
-65.809982569671334
 21
-9.0
 31
0.0
  0
LINE
  5
109
  8
DATA
  6
CONTINUOUS
 62
     7
 10
-89.20998256967134
 20
-9.0
 30
0.0
 11
-89.20998256967134
 21
-16.79999999999999
 31
0.0
  0
LINE
  5
10A
  8
DATA
  6
CONTINUOUS
 62
     7
 10
-89.500000000000014
 20
-6.5
 30
0.0
 11
-89.500000000000014
 21
-9.0
 31
0.0
  0
LINE
  5
10B
  8
DATA
  6
CONTINUOUS
 62
     7
 10
-89.500000000000014
 20
-16.79999999999999
 30
0.0
 11
-89.500000000000014
 21
-20.499999992549419
 31
0.0
  0
LINE
  5
10C
  8
DATA
  6
CONTINUOUS
 62
     7
 10
-65.5
 20
-6.5000000074505797
 30
0.0
 11
-65.5
 21
-9.0
 31
0.0
  0
LINE
  5
10D
  8
DATA
  6
CONTINUOUS
 62
     7
 10
-65.5
 20
-16.79999999999999
 30
0.0
 11
-65.5
 21
-20.499999992549419
 31
0.0
  0
ARC
  5
10E
  8
DATA
  6
CONTINUOUS
 62
     7
 10
-89.0
 20
-6.5
 30
0.0
 40
0.5
 50
90.0
 51
180.0
  0
ARC
  5
10F
  8
DATA
  6
CONTINUOUS
 62
     7
 10
-66.000000007450581
 20
-6.5000000074505797
 30
0.0
 40
0.5000000074505806
 50
0.0
 51
90.0
  0
ARC
  5
110
  8
DATA
  6
CONTINUOUS
 62
     7
 10
-88.999999992549434
 20
-20.499999992549419
 30
0.0
 40
0.5000000074505806
 50
180.0
 51
270.0
  0
ARC
  5
111
  8
DATA
  6
CONTINUOUS
 62
     7
 10
-66.000000007450581
 20
-20.499999992549419
 30
0.0
 40
0.5000000074505806
 50
270.0
 51
0.0
  0
LINE
  5
112
  8
DATA
  6
CONTINUOUS
 62
     7
 10
-20.0
 20
-119.49999999254941
 30
0.0
 11
-20.0
 21
-27.500000007450581
 31
0.0
  0
LINE
  5
113
  8
DATA
  6
CONTINUOUS
 62
     7
 10
-19.499999992549409
 20
-120.0
 30
0.0
 11
5.0692685300645044
 21
-120.0
 31
0.0
  0
LINE
  5
114
  8
DATA
  6
CONTINUOUS
 62
     7
 10
-14.854250168170021
 20
-27.0
 30
0.0
 11
-14.854250168170021
 21
-21.0
 31
0.0
  0
LINE
  5
115
  8
DATA
  6
CONTINUOUS
 62
     7
 10
-14.854250168170021
 20
-5.999999999999992
 30
0.0
 11
-14.854250168170021
 21
5.2999999999999998
 31
0.0
  0
LINE
  5
116
  8
DATA
  6
CONTINUOUS
 62
     7
 10
0.9457498318299606
 20
5.2999999895691872
 30
0.0
 11
0.9457498318299606
 21
-6.0
 31
0.0
  0
LINE
  5
117
  8
DATA
  6
CONTINUOUS
 62
     7
 10
0.9457498318299606
 20
-21.0
 30
0.0
 11
0.9457498318299606
 21
-27.0
 31
0.0
  0
LINE
  5
118
  8
DATA
  6
CONTINUOUS
 62
     7
 10
-14.154250168170011
 20
6.0
 30
0.0
 11
0.2457498213991549
 21
6.0
 31
0.0
  0
LINE
  5
119
  8
DATA
  6
CONTINUOUS
 62
     7
 10
-19.45425016817001
 20
-16.79999999999999
 30
0.0
 11
-19.45425016817001
 21
-8.9999999999999911
 31
0.0
  0
LINE
  5
11A
  8
DATA
  6
CONTINUOUS
 62
     7
 10
4.5457498243793877
 20
-21.0
 30
0.0
 11
-18.454250160719429
 21
-21.0
 31
0.0
  0
LINE
  5
11B
  8
DATA
  6
CONTINUOUS
 62
     7
 10
5.5457498318299692
 20
-9.0
 30
0.0
 11
5.5457498318299692
 21
-16.79999999999999
 31
0.0
  0
LINE
  5
11C
  8
DATA
  6
CONTINUOUS
 62
     7
 10
-18.45425016817001
 20
-6.0
 30
0.0
 11
4.5457498243793877
 21
-6.0
 31
0.0
  0
ARC
  5
11D
  8
DATA
  6
CONTINUOUS
 62
     7
 10
-14.154250168170011
 20
5.2999999999999998
 30
0.0
 40
0.6999999999999993
 50
90.0
 51
180.0
  0
ARC
  5
11E
  8
DATA
  6
CONTINUOUS
 62
     7
 10
0.2457498213991549
 20
5.2999999895691872
 30
0.0
 40
0.7000000104308058
 50
0.0
 51
90.0
  0
LINE
  5
11F
  8
DATA
  6
CONTINUOUS
 62
     7
 10
-19.454250168169999
 20
-9.0
 30
0.0
 11
5.5457498318299692
 21
-9.0
 31
0.0
  0
LINE
  5
120
  8
DATA
  6
CONTINUOUS
 62
     7
 10
-19.45425016817001
 20
-16.79999999999999
 30
0.0
 11
5.545749831829955
 21
-16.79999999999999
 31
0.0
  0
LINE
  5
121
  8
DATA
  6
CONTINUOUS
 62
     7
 10
-17.064232737841369
 20
-16.79999999999999
 30
0.0
 11
-17.064232737841369
 21
-9.0
 31
0.0
  0
LINE
  5
122
  8
DATA
  6
CONTINUOUS
 62
     7
 10
-16.86423273784137
 20
-16.79999999999999
 30
0.0
 11
-16.86423273784137
 21
-9.0
 31
0.0
  0
LINE
  5
123
  8
DATA
  6
CONTINUOUS
 62
     7
 10
-16.86423273784137
 20
-16.79999999999999
 30
0.0
 11
-16.86423273784137
 21
-9.0
 31
0.0
  0
LINE
  5
124
  8
DATA
  6
CONTINUOUS
 62
     7
 10
-15.26423273784137
 20
-16.79999999999999
 30
0.0
 11
-15.26423273784137
 21
-9.0
 31
0.0
  0
LINE
  5
125
  8
DATA
  6
CONTINUOUS
 62
     7
 10
-15.064232737841371
 20
-16.79999999999999
 30
0.0
 11
-15.064232737841371
 21
-9.0
 31
0.0
  0
LINE
  5
126
  8
DATA
  6
CONTINUOUS
 62
     7
 10
-15.064232737841371
 20
-16.79999999999999
 30
0.0
 11
-15.064232737841371
 21
-9.0
 31
0.0
  0
LINE
  5
127
  8
DATA
  6
CONTINUOUS
 62
     7
 10
-13.464232737841369
 20
-16.79999999999999
 30
0.0
 11
-13.464232737841369
 21
-9.0
 31
0.0
  0
LINE
  5
128
  8
DATA
  6
CONTINUOUS
 62
     7
 10
-13.26423273784137
 20
-16.79999999999999
 30
0.0
 11
-13.26423273784137
 21
-9.0
 31
0.0
  0
LINE
  5
129
  8
DATA
  6
CONTINUOUS
 62
     7
 10
-13.264232737841359
 20
-16.79999999999999
 30
0.0
 11
-13.264232737841359
 21
-9.0
 31
0.0
  0
LINE
  5
12A
  8
DATA
  6
CONTINUOUS
 62
     7
 10
-11.66423273784137
 20
-16.79999999999999
 30
0.0
 11
-11.66423273784137
 21
-9.0
 31
0.0
  0
LINE
  5
12B
  8
DATA
  6
CONTINUOUS
 62
     7
 10
-11.46423273784136
 20
-16.79999999999999
 30
0.0
 11
-11.46423273784136
 21
-9.0
 31
0.0
  0
LINE
  5
12C
  8
DATA
  6
CONTINUOUS
 62
     7
 10
-11.46423273784136
 20
-16.79999999999999
 30
0.0
 11
-11.46423273784136
 21
-9.0
 31
0.0
  0
LINE
  5
12D
  8
DATA
  6
CONTINUOUS
 62
     7
 10
-9.8642327378413661
 20
-16.79999999999999
 30
0.0
 11
-9.8642327378413661
 21
-9.0
 31
0.0
  0
LINE
  5
12E
  8
DATA
  6
CONTINUOUS
 62
     7
 10
-9.6642327378413668
 20
-16.79999999999999
 30
0.0
 11
-9.6642327378413668
 21
-9.0
 31
0.0
  0
LINE
  5
12F
  8
DATA
  6
CONTINUOUS
 62
     7
 10
-9.6642327378413668
 20
-16.79999999999999
 30
0.0
 11
-9.6642327378413668
 21
-9.0
 31
0.0
  0
LINE
  5
130
  8
DATA
  6
CONTINUOUS
 62
     7
 10
-8.0642327378413725
 20
-16.79999999999999
 30
0.0
 11
-8.0642327378413725
 21
-9.0
 31
0.0
  0
LINE
  5
131
  8
DATA
  6
CONTINUOUS
 62
     7
 10
-7.8642327378413688
 20
-16.79999999999999
 30
0.0
 11
-7.8642327378413688
 21
-9.0
 31
0.0
  0
LINE
  5
132
  8
DATA
  6
CONTINUOUS
 62
     7
 10
-7.8642327378413688
 20
-16.79999999999999
 30
0.0
 11
-7.8642327378413688
 21
-9.0
 31
0.0
  0
LINE
  5
133
  8
DATA
  6
CONTINUOUS
 62
     7
 10
-6.2642327378413762
 20
-16.79999999999999
 30
0.0
 11
-6.2642327378413762
 21
-9.0
 31
0.0
  0
LINE
  5
134
  8
DATA
  6
CONTINUOUS
 62
     7
 10
-6.0642327378413716
 20
-16.79999999999999
 30
0.0
 11
-6.0642327378413716
 21
-9.0
 31
0.0
  0
LINE
  5
135
  8
DATA
  6
CONTINUOUS
 62
     7
 10
-6.0642327378413716
 20
-16.79999999999999
 30
0.0
 11
-6.0642327378413716
 21
-9.0
 31
0.0
  0
LINE
  5
136
  8
DATA
  6
CONTINUOUS
 62
     7
 10
-4.4642327378413773
 20
-16.79999999999999
 30
0.0
 11
-4.4642327378413773
 21
-9.0
 31
0.0
  0
LINE
  5
137
  8
DATA
  6
CONTINUOUS
 62
     7
 10
-4.2642327378413611
 20
-16.79999999999999
 30
0.0
 11
-4.2642327378413611
 21
-9.0
 31
0.0
  0
LINE
  5
138
  8
DATA
  6
CONTINUOUS
 62
     7
 10
-4.2642327378413611
 20
-16.79999999999999
 30
0.0
 11
-4.2642327378413611
 21
-9.0
 31
0.0
  0
LINE
  5
139
  8
DATA
  6
CONTINUOUS
 62
     7
 10
-2.6642327378413659
 20
-16.79999999999999
 30
0.0
 11
-2.6642327378413659
 21
-9.0
 31
0.0
  0
LINE
  5
13A
  8
DATA
  6
CONTINUOUS
 62
     7
 10
-2.4642327378413631
 20
-16.79999999999999
 30
0.0
 11
-2.4642327378413631
 21
-9.0
 31
0.0
  0
LINE
  5
13B
  8
DATA
  6
CONTINUOUS
 62
     7
 10
-2.4642327378413631
 20
-16.79999999999999
 30
0.0
 11
-2.4642327378413631
 21
-9.0
 31
0.0
  0
LINE
  5
13C
  8
DATA
  6
CONTINUOUS
 62
     7
 10
-0.8642327378413696
 20
-16.79999999999999
 30
0.0
 11
-0.8642327378413696
 21
-9.0
 31
0.0
  0
LINE
  5
13D
  8
DATA
  6
CONTINUOUS
 62
     7
 10
-0.6642327378413669
 20
-16.79999999999999
 30
0.0
 11
-0.6642327378413669
 21
-9.0
 31
0.0
  0
LINE
  5
13E
  8
DATA
  6
CONTINUOUS
 62
     7
 10
-0.6642327378413669
 20
-16.79999999999999
 30
0.0
 11
-0.6642327378413669
 21
-9.0
 31
0.0
  0
LINE
  5
13F
  8
DATA
  6
CONTINUOUS
 62
     7
 10
0.9357672621586095
 20
-16.79999999999999
 30
0.0
 11
0.9357672621586095
 21
-9.0
 31
0.0
  0
LINE
  5
140
  8
DATA
  6
CONTINUOUS
 62
     7
 10
1.1357672621586119
 20
-16.79999999999999
 30
0.0
 11
1.1357672621586119
 21
-9.0
 31
0.0
  0
LINE
  5
141
  8
DATA
  6
CONTINUOUS
 62
     7
 10
1.1357672621586259
 20
-16.79999999999999
 30
0.0
 11
1.1357672621586259
 21
-9.0
 31
0.0
  0
LINE
  5
142
  8
DATA
  6
CONTINUOUS
 62
     7
 10
2.7357672621586202
 20
-16.79999999999999
 30
0.0
 11
2.7357672621586202
 21
-9.0
 31
0.0
  0
LINE
  5
143
  8
DATA
  6
CONTINUOUS
 62
     7
 10
2.9357672621586088
 20
-16.79999999999999
 30
0.0
 11
2.9357672621586088
 21
-9.0
 31
0.0
  0
LINE
  5
144
  8
DATA
  6
CONTINUOUS
 62
     7
 10
2.935767262158623
 20
-16.79999999999999
 30
0.0
 11
2.935767262158623
 21
-9.0
 31
0.0
  0
LINE
  5
145
  8
DATA
  6
CONTINUOUS
 62
     7
 10
4.5357672621586174
 20
-16.79999999999999
 30
0.0
 11
4.5357672621586174
 21
-9.0
 31
0.0
  0
LINE
  5
146
  8
DATA
  6
CONTINUOUS
 62
     7
 10
4.7357672621586211
 20
-16.79999999999999
 30
0.0
 11
4.7357672621586211
 21
-9.0
 31
0.0
  0
LINE
  5
147
  8
DATA
  6
CONTINUOUS
 62
     7
 10
4.7357672621586211
 20
-16.79999999999999
 30
0.0
 11
4.7357672621586211
 21
-9.0
 31
0.0
  0
LINE
  5
148
  8
DATA
  6
CONTINUOUS
 62
     7
 10
-18.66423273784137
 20
-9.0
 30
0.0
 11
-18.66423273784137
 21
-16.79999999999999
 31
0.0
  0
LINE
  5
149
  8
DATA
  6
CONTINUOUS
 62
     7
 10
-18.95425016817001
 20
-6.5
 30
0.0
 11
-18.95425016817001
 21
-9.0
 31
0.0
  0
LINE
  5
14A
  8
DATA
  6
CONTINUOUS
 62
     7
 10
-18.95425016817001
 20
-16.79999999999999
 30
0.0
 11
-18.95425016817001
 21
-20.499999992549419
 31
0.0
  0
LINE
  5
14B
  8
DATA
  6
CONTINUOUS
 62
     7
 10
5.0457498318299692
 20
-6.5000000074505797
 30
0.0
 11
5.0457498318299692
 21
-9.0
 31
0.0
  0
LINE
  5
14C
  8
DATA
  6
CONTINUOUS
 62
     7
 10
5.0457498318299692
 20
-16.79999999999999
 30
0.0
 11
5.0457498318299692
 21
-20.499999992549419
 31
0.0
  0
ARC
  5
14D
  8
DATA
  6
CONTINUOUS
 62
     7
 10
-18.45425016817001
 20
-6.5
 30
0.0
 40
0.5
 50
90.0
 51
180.0
  0
ARC
  5
14E
  8
DATA
  6
CONTINUOUS
 62
     7
 10
4.5457498243793877
 20
-6.5000000074505797
 30
0.0
 40
0.5000000074505806
 50
0.0
 51
90.0
  0
ARC
  5
14F
  8
DATA
  6
CONTINUOUS
 62
     7
 10
-18.454250160719429
 20
-20.499999992549419
 30
0.0
 40
0.5000000074505806
 50
180.0
 51
270.0
  0
ARC
  5
150
  8
DATA
  6
CONTINUOUS
 62
     7
 10
4.5457498243793877
 20
-20.499999992549419
 30
0.0
 40
0.5000000074505806
 50
270.0
 51
0.0
  0
LINE
  5
151
  8
DATA
  6
CONTINUOUS
 62
     7
 10
-19.499999992549409
 20
-27.0
 30
0.0
 11
8.4999999999999911
 21
-27.0
 31
0.0
  0
LINE
  5
152
  8
DATA
  6
CONTINUOUS
 62
     7
 10
-11.5
 20
-121.0
 30
0.0
 11
-0.5
 21
-121.0
 31
0.0
  0
LINE
  5
153
  8
DATA
  6
CONTINUOUS
 62
     7
 10
-15.0
 20
-35.0
 30
0.0
 11
-15.0
 21
-120.0
 31
0.0
  0
LINE
  5
154
  8
DATA
  6
CONTINUOUS
 62
     7
 10
-12.0
 20
-120.0
 30
0.0
 11
-12.0
 21
-120.5
 31
0.0
  0
LINE
  5
155
  8
DATA
  6
CONTINUOUS
 62
     7
 10
0.0
 20
-120.0
 30
0.0
 11
0.0
 21
-120.5
 31
0.0
  0
LINE
  5
156
  8
DATA
  6
CONTINUOUS
 62
     7
 10
-20.0
 20
-117.0
 30
0.0
 11
-15.0
 21
-117.0
 31
0.0
  0
LINE
  5
157
  8
DATA
  6
CONTINUOUS
 62
     7
 10
-20.000000000000011
 20
-35.0
 30
0.0
 11
-15.000000000000011
 21
-35.0
 31
0.0
  0
LINE
  5
158
  8
DATA
  6
CONTINUOUS
 62
     7
 10
-3.3999999999999981
 20
-27.0
 30
0.0
 11
-3.3999999999999981
 21
-119.9999999999999
 31
0.0
  0
LINE
  5
159
  8
DATA
  6
CONTINUOUS
 62
     7
 10
-3.099999999999997
 20
-27.0
 30
0.0
 11
-3.099999999999997
 21
-119.9999999999999
 31
0.0
  0
ARC
  5
15A
  8
DATA
  6
CONTINUOUS
 62
     7
 10
-19.499999992549409
 20
-119.49999999254941
 30
0.0
 40
0.5000000074505806
 50
180.0
 51
270.0
  0
ARC
  5
15B
  8
DATA
  6
CONTINUOUS
 62
     7
 10
-19.499999992549409
 20
-27.500000007450581
 30
0.0
 40
0.5000000074505806
 50
90.0
 51
180.0
  0
LINE
  5
15C
  8
DATA
  6
CONTINUOUS
 62
   255
 10
0.4306197357045356
 20
-62.0
 30
0.0
 11
9.1193194853699442
 21
-62.0
 31
0.0
  0
LINE
  5
15D
  8
DATA
  6
CONTINUOUS
 62
   255
 10
0.4010569367252935
 20
-77.0
 30
0.0
 11
8.7487455880501557
 21
-77.0
 31
0.0
  0
LINE
  5
15E
  8
DATA
  6
CONTINUOUS
 62
     7
 10
8.9999999999999911
 20
-31.850000000000001
 30
0.0
 11
8.9999999999999911
 21
-27.5
 31
0.0
  0
ARC
  5
15F
  8
DATA
  6
CONTINUOUS
 62
     7
 10
-843.5
 20
-58.5
 30
0.0
 40
851.72325317558375
 50
355.92191328081748
 51
357.34859931887428
  0
ARC
  5
160
  8
DATA
  6
CONTINUOUS
 62
     7
 10
-843.5
 20
-58.5
 30
0.0
 40
851.72325317558375
 50
358.75539938394309
 51
359.76455287331771
  0
LINE
  5
161
  8
DATA
  6
CONTINUOUS
 62
     7
 10
-0.0989419559847065
 20
-76.498944180371694
 30
0.0
 11
-0.0693791495549014
 21
-62.498944187838013
 31
0.0
  0
ARC
  5
162
  8
DATA
  6
CONTINUOUS
 62
     7
 10
-844.5
 20
-58.5
 30
0.0
 40
851.72325317558375
 50
358.75539938394292
 51
359.76455287331731
  0
ARC
  5
163
  8
DATA
  6
CONTINUOUS
 62
     7
 10
5.0692685300645044
 20
-119.0
 30
0.0
 40
0.9999999999999431
 50
270.0
 51
355.9219132808206
  0
ARC
  5
164
  8
DATA
  6
CONTINUOUS
 62
     7
 10
-596.78571428571433
 20
-35.071428571428569
 30
0.0
 40
602.79851610667413
 50
351.90062232943609
 51
356.01148398285102
  0
ARC
  5
165
  8
DATA
  6
CONTINUOUS
 62
     7
 10
-596.78571428571433
 20
-35.071428571428569
 30
0.0
 40
602.79851610667413
 50
357.43959699951159
 51
359.62658807244622
  0
ARC
  5
166
  8
DATA
  6
CONTINUOUS
 62
     7
 10
0.4306197357045356
 20
-62.5
 30
0.0
 40
0.4999999999999858
 50
90.0
 51
179.87901274840701
  0
ARC
  5
167
  8
DATA
  6
CONTINUOUS
 62
   255
 10
0.40105693672529
 20
-76.499999992549419
 30
0.0
 40
0.5000000074505772
 50
179.8790127484055
 51
270.0000000000004
  0
LINE
  5
168
  8
DATA
  6
CONTINUOUS
 62
     7
 10
0.9457498318299572
 20
-5.6214602176516593
 30
0.0
 11
2.445749831829978
 21
-5.6214602176516593
 31
0.0
  0
LINE
  5
169
  8
DATA
  6
CONTINUOUS
 62
     7
 10
2.4457498318299811
 20
-5.6214602176516593
 30
0.0
 11
0.9457498318299606
 21
-3.0
 31
0.0
  0
LINE
  5
16A
  8
DATA
  6
CONTINUOUS
 62
     7
 10
32.0
 20
-120.0
 30
0.0
 11
93.0
 21
-120.0
 31
0.0
  0
LINE
  5
16B
  8
DATA
  6
CONTINUOUS
 62
     7
 10
30.0
 20
-118.0
 30
0.0
 11
30.0
 21
-41.0
 31
0.0
  0
LINE
  5
16C
  8
DATA
  6
CONTINUOUS
 62
     7
 10
95.0
 20
-118.0
 30
0.0
 11
95.0
 21
-41.0
 31
0.0
  0
LINE
  5
16D
  8
DATA
  6
CONTINUOUS
 62
     7
 10
48.369924076215469
 20
-27.0
 30
0.0
 11
76.630075923784517
 21
-27.0
 31
0.0
  0
LINE
  5
16E
  8
DATA
  6
CONTINUOUS
 62
     7
 10
54.600000000000001
 20
-27.0
 30
0.0
 11
54.600000000000001
 21
-21.0
 31
0.0
  0
LINE
  5
16F
  8
DATA
  6
CONTINUOUS
 62
     7
 10
54.600000000000001
 20
-5.999999999999992
 30
0.0
 11
54.600000000000001
 21
5.2999999999999998
 31
0.0
  0
LINE
  5
170
  8
DATA
  6
CONTINUOUS
 62
     7
 10
70.399999999999977
 20
5.2999999895691872
 30
0.0
 11
70.399999999999977
 21
-6.0
 31
0.0
  0
LINE
  5
171
  8
DATA
  6
CONTINUOUS
 62
     7
 10
70.399999999999977
 20
-21.0
 30
0.0
 11
70.399999999999977
 21
-27.0
 31
0.0
  0
LINE
  5
172
  8
DATA
  6
CONTINUOUS
 62
     7
 10
55.299999999999997
 20
6.0
 30
0.0
 11
69.699999989569179
 21
6.0
 31
0.0
  0
LINE
  5
173
  8
DATA
  6
CONTINUOUS
 62
     7
 10
50.0
 20
-16.79999999999999
 30
0.0
 11
50.0
 21
-8.9999999999999911
 31
0.0
  0
LINE
  5
174
  8
DATA
  6
CONTINUOUS
 62
     7
 10
73.999999992549419
 20
-21.0
 30
0.0
 11
51.000000007450581
 21
-21.0
 31
0.0
  0
LINE
  5
175
  8
DATA
  6
CONTINUOUS
 62
     7
 10
75.0
 20
-9.0
 30
0.0
 11
75.0
 21
-16.79999999999999
 31
0.0
  0
LINE
  5
176
  8
DATA
  6
CONTINUOUS
 62
     7
 10
51.0
 20
-6.0
 30
0.0
 11
73.999999992549419
 21
-6.0
 31
0.0
  0
ARC
  5
177
  8
DATA
  6
CONTINUOUS
 62
     7
 10
32.0
 20
-118.0
 30
0.0
 40
2.0
 50
180.0
 51
270.0
  0
ARC
  5
178
  8
DATA
  6
CONTINUOUS
 62
     7
 10
93.0
 20
-118.0
 30
0.0
 40
2.0
 50
270.0
 51
0.0
  0
LINE
  5
179
  8
DATA
  6
CONTINUOUS
 62
     7
 10
32.0
 20
-39.0
 30
0.0
 11
33.630075923784517
 21
-39.0
 31
0.0
  0
LINE
  5
17A
  8
DATA
  6
CONTINUOUS
 62
     7
 10
91.369924076215483
 20
-39.0
 30
0.0
 11
93.0
 21
-39.0
 31
0.0
  0
LINE
  5
17B
  8
DATA
  6
CONTINUOUS
 62
     7
 10
34.280867297240491
 20
-38.759256602365298
 30
0.0
 11
47.719132702759502
 21
-27.240743397634709
 31
0.0
  0
LINE
  5
17C
  8
DATA
  6
CONTINUOUS
 62
     7
 10
90.719132702759509
 20
-38.759256602365298
 30
0.0
 11
77.280867297240491
 21
-27.240743397634709
 31
0.0
  0
ARC
  5
17D
  8
DATA
  6
CONTINUOUS
 62
     7
 10
32.0
 20
-41.0
 30
0.0
 40
2.0
 50
90.0
 51
180.0
  0
ARC
  5
17E
  8
DATA
  6
CONTINUOUS
 62
     7
 10
93.0
 20
-41.0
 30
0.0
 40
2.0
 50
0.0
 51
90.0
  0
ARC
  5
17F
  8
DATA
  6
CONTINUOUS
 62
     7
 10
33.630075923784517
 20
-38.0
 30
0.0
 40
1.0
 50
270.0
 51
310.6012946450046
  0
ARC
  5
180
  8
DATA
  6
CONTINUOUS
 62
     7
 10
91.369924076215483
 20
-38.0
 30
0.0
 40
1.000000000000004
 50
229.3987053549952
 51
270.0
  0
ARC
  5
181
  8
DATA
  6
CONTINUOUS
 62
     7
 10
48.369924076215469
 20
-28.0
 30
0.0
 40
1.0
 50
90.0
 51
130.6012946450046
  0
ARC
  5
182
  8
DATA
  6
CONTINUOUS
 62
     7
 10
76.630075923784517
 20
-28.0
 30
0.0
 40
1.000000000000004
 50
49.398705354995357
 51
90.0
  0
ARC
  5
183
  8
DATA
  6
CONTINUOUS
 62
     7
 10
55.299999999999997
 20
5.2999999999999998
 30
0.0
 40
0.6999999999999993
 50
90.0
 51
180.0
  0
ARC
  5
184
  8
DATA
  6
CONTINUOUS
 62
     7
 10
69.699999989569179
 20
5.2999999895691872
 30
0.0
 40
0.700000010430813
 50
0.0
 51
90.0
  0
LINE
  5
185
  8
DATA
  6
CONTINUOUS
 62
     7
 10
50.000000000000021
 20
-9.0
 30
0.0
 11
75.0
 21
-9.0
 31
0.0
  0
LINE
  5
186
  8
DATA
  6
CONTINUOUS
 62
     7
 10
50.0
 20
-16.79999999999999
 30
0.0
 11
74.999999999999986
 21
-16.79999999999999
 31
0.0
  0
LINE
  5
187
  8
DATA
  6
CONTINUOUS
 62
     7
 10
52.390017430328633
 20
-16.79999999999999
 30
0.0
 11
52.390017430328633
 21
-9.0
 31
0.0
  0
LINE
  5
188
  8
DATA
  6
CONTINUOUS
 62
     7
 10
52.590017430328643
 20
-16.79999999999999
 30
0.0
 11
52.590017430328643
 21
-9.0
 31
0.0
  0
LINE
  5
189
  8
DATA
  6
CONTINUOUS
 62
     7
 10
52.590017430328643
 20
-16.79999999999999
 30
0.0
 11
52.590017430328643
 21
-9.0
 31
0.0
  0
LINE
  5
18A
  8
DATA
  6
CONTINUOUS
 62
     7
 10
54.190017430328638
 20
-16.79999999999999
 30
0.0
 11
54.190017430328638
 21
-9.0
 31
0.0
  0
LINE
  5
18B
  8
DATA
  6
CONTINUOUS
 62
     7
 10
54.390017430328633
 20
-16.79999999999999
 30
0.0
 11
54.390017430328633
 21
-9.0
 31
0.0
  0
LINE
  5
18C
  8
DATA
  6
CONTINUOUS
 62
     7
 10
54.390017430328633
 20
-16.79999999999999
 30
0.0
 11
54.390017430328633
 21
-9.0
 31
0.0
  0
LINE
  5
18D
  8
DATA
  6
CONTINUOUS
 62
     7
 10
55.990017430328642
 20
-16.79999999999999
 30
0.0
 11
55.990017430328642
 21
-9.0
 31
0.0
  0
LINE
  5
18E
  8
DATA
  6
CONTINUOUS
 62
     7
 10
56.190017430328638
 20
-16.79999999999999
 30
0.0
 11
56.190017430328638
 21
-9.0
 31
0.0
  0
LINE
  5
18F
  8
DATA
  6
CONTINUOUS
 62
     7
 10
56.190017430328638
 20
-16.79999999999999
 30
0.0
 11
56.190017430328638
 21
-9.0
 31
0.0
  0
LINE
  5
190
  8
DATA
  6
CONTINUOUS
 62
     7
 10
57.790017430328639
 20
-16.79999999999999
 30
0.0
 11
57.790017430328639
 21
-9.0
 31
0.0
  0
LINE
  5
191
  8
DATA
  6
CONTINUOUS
 62
     7
 10
57.990017430328649
 20
-16.79999999999999
 30
0.0
 11
57.990017430328649
 21
-9.0
 31
0.0
  0
LINE
  5
192
  8
DATA
  6
CONTINUOUS
 62
     7
 10
57.990017430328649
 20
-16.79999999999999
 30
0.0
 11
57.990017430328649
 21
-9.0
 31
0.0
  0
LINE
  5
193
  8
DATA
  6
CONTINUOUS
 62
     7
 10
59.590017430328643
 20
-16.79999999999999
 30
0.0
 11
59.590017430328643
 21
-9.0
 31
0.0
  0
LINE
  5
194
  8
DATA
  6
CONTINUOUS
 62
     7
 10
59.790017430328639
 20
-16.79999999999999
 30
0.0
 11
59.790017430328639
 21
-9.0
 31
0.0
  0
LINE
  5
195
  8
DATA
  6
CONTINUOUS
 62
     7
 10
59.790017430328639
 20
-16.79999999999999
 30
0.0
 11
59.790017430328639
 21
-9.0
 31
0.0
  0
LINE
  5
196
  8
DATA
  6
CONTINUOUS
 62
     7
 10
61.390017430328641
 20
-16.79999999999999
 30
0.0
 11
61.390017430328641
 21
-9.0
 31
0.0
  0
LINE
  5
197
  8
DATA
  6
CONTINUOUS
 62
     7
 10
61.590017430328629
 20
-16.79999999999999
 30
0.0
 11
61.590017430328629
 21
-9.0
 31
0.0
  0
LINE
  5
198
  8
DATA
  6
CONTINUOUS
 62
     7
 10
61.590017430328629
 20
-16.79999999999999
 30
0.0
 11
61.590017430328629
 21
-9.0
 31
0.0
  0
LINE
  5
199
  8
DATA
  6
CONTINUOUS
 62
     7
 10
63.190017430328631
 20
-16.79999999999999
 30
0.0
 11
63.190017430328631
 21
-9.0
 31
0.0
  0
LINE
  5
19A
  8
DATA
  6
CONTINUOUS
 62
     7
 10
63.390017430328633
 20
-16.79999999999999
 30
0.0
 11
63.390017430328633
 21
-9.0
 31
0.0
  0
LINE
  5
19B
  8
DATA
  6
CONTINUOUS
 62
     7
 10
63.390017430328633
 20
-16.79999999999999
 30
0.0
 11
63.390017430328633
 21
-9.0
 31
0.0
  0
LINE
  5
19C
  8
DATA
  6
CONTINUOUS
 62
     7
 10
64.990017430328635
 20
-16.79999999999999
 30
0.0
 11
64.990017430328635
 21
-9.0
 31
0.0
  0
LINE
  5
19D
  8
DATA
  6
CONTINUOUS
 62
     7
 10
65.190017430328652
 20
-16.79999999999999
 30
0.0
 11
65.190017430328652
 21
-9.0
 31
0.0
  0
LINE
  5
19E
  8
DATA
  6
CONTINUOUS
 62
     7
 10
65.190017430328652
 20
-16.79999999999999
 30
0.0
 11
65.190017430328652
 21
-9.0
 31
0.0
  0
LINE
  5
19F
  8
DATA
  6
CONTINUOUS
 62
     7
 10
66.790017430328646
 20
-16.79999999999999
 30
0.0
 11
66.790017430328646
 21
-9.0
 31
0.0
  0
LINE
  5
1A0
  8
DATA
  6
CONTINUOUS
 62
     7
 10
66.990017430328649
 20
-16.79999999999999
 30
0.0
 11
66.990017430328649
 21
-9.0
 31
0.0
  0
LINE
  5
1A1
  8
DATA
  6
CONTINUOUS
 62
     7
 10
66.990017430328649
 20
-16.79999999999999
 30
0.0
 11
66.990017430328649
 21
-9.0
 31
0.0
  0
LINE
  5
1A2
  8
DATA
  6
CONTINUOUS
 62
     7
 10
68.590017430328615
 20
-16.79999999999999
 30
0.0
 11
68.590017430328615
 21
-9.0
 31
0.0
  0
LINE
  5
1A3
  8
DATA
  6
CONTINUOUS
 62
     7
 10
68.790017430328646
 20
-16.79999999999999
 30
0.0
 11
68.790017430328646
 21
-9.0
 31
0.0
  0
LINE
  5
1A4
  8
DATA
  6
CONTINUOUS
 62
     7
 10
68.790017430328646
 20
-16.79999999999999
 30
0.0
 11
68.790017430328646
 21
-9.0
 31
0.0
  0
LINE
  5
1A5
  8
DATA
  6
CONTINUOUS
 62
     7
 10
70.390017430328641
 20
-16.79999999999999
 30
0.0
 11
70.390017430328641
 21
-9.0
 31
0.0
  0
LINE
  5
1A6
  8
DATA
  6
CONTINUOUS
 62
     7
 10
70.590017430328629
 20
-16.79999999999999
 30
0.0
 11
70.590017430328629
 21
-9.0
 31
0.0
  0
LINE
  5
1A7
  8
DATA
  6
CONTINUOUS
 62
     7
 10
70.590017430328643
 20
-16.79999999999999
 30
0.0
 11
70.590017430328643
 21
-9.0
 31
0.0
  0
LINE
  5
1A8
  8
DATA
  6
CONTINUOUS
 62
     7
 10
72.190017430328652
 20
-16.79999999999999
 30
0.0
 11
72.190017430328652
 21
-9.0
 31
0.0
  0
LINE
  5
1A9
  8
DATA
  6
CONTINUOUS
 62
     7
 10
72.390017430328641
 20
-16.79999999999999
 30
0.0
 11
72.390017430328641
 21
-9.0
 31
0.0
  0
LINE
  5
1AA
  8
DATA
  6
CONTINUOUS
 62
     7
 10
72.390017430328655
 20
-16.79999999999999
 30
0.0
 11
72.390017430328655
 21
-9.0
 31
0.0
  0
LINE
  5
1AB
  8
DATA
  6
CONTINUOUS
 62
     7
 10
73.990017430328649
 20
-16.79999999999999
 30
0.0
 11
73.990017430328649
 21
-9.0
 31
0.0
  0
LINE
  5
1AC
  8
DATA
  6
CONTINUOUS
 62
     7
 10
74.190017430328652
 20
-16.79999999999999
 30
0.0
 11
74.190017430328652
 21
-9.0
 31
0.0
  0
LINE
  5
1AD
  8
DATA
  6
CONTINUOUS
 62
     7
 10
74.190017430328652
 20
-16.79999999999999
 30
0.0
 11
74.190017430328652
 21
-9.0
 31
0.0
  0
LINE
  5
1AE
  8
DATA
  6
CONTINUOUS
 62
     7
 10
50.790017430328653
 20
-9.0
 30
0.0
 11
50.790017430328653
 21
-16.79999999999999
 31
0.0
  0
LINE
  5
1AF
  8
DATA
  6
CONTINUOUS
 62
     7
 10
50.5
 20
-6.5
 30
0.0
 11
50.5
 21
-9.0
 31
0.0
  0
LINE
  5
1B0
  8
DATA
  6
CONTINUOUS
 62
     7
 10
50.5
 20
-16.79999999999999
 30
0.0
 11
50.5
 21
-20.499999992549419
 31
0.0
  0
LINE
  5
1B1
  8
DATA
  6
CONTINUOUS
 62
     7
 10
74.5
 20
-6.5000000074505797
 30
0.0
 11
74.5
 21
-9.0
 31
0.0
  0
LINE
  5
1B2
  8
DATA
  6
CONTINUOUS
 62
     7
 10
74.5
 20
-16.79999999999999
 30
0.0
 11
74.5
 21
-20.499999992549419
 31
0.0
  0
ARC
  5
1B3
  8
DATA
  6
CONTINUOUS
 62
     7
 10
51.0
 20
-6.5
 30
0.0
 40
0.5
 50
90.0
 51
180.0
  0
ARC
  5
1B4
  8
DATA
  6
CONTINUOUS
 62
     7
 10
73.999999992549419
 20
-6.5000000074505797
 30
0.0
 40
0.5000000074505806
 50
0.0
 51
90.0
  0
ARC
  5
1B5
  8
DATA
  6
CONTINUOUS
 62
     7
 10
51.000000007450581
 20
-20.499999992549419
 30
0.0
 40
0.5000000074505806
 50
180.0
 51
270.0
  0
ARC
  5
1B6
  8
DATA
  6
CONTINUOUS
 62
     7
 10
73.999999992549419
 20
-20.499999992549419
 30
0.0
 40
0.5000000074505806
 50
270.0
 51
0.0
  0
LINE
  5
1B7
  8
DATA
  6
CONTINUOUS
 62
     7
 10
76.0
 20
-120.0
 30
0.0
 11
76.0
 21
-120.5
 31
0.0
  0
LINE
  5
1B8
  8
DATA
  6
CONTINUOUS
 62
     7
 10
88.0
 20
-120.0
 30
0.0
 11
88.0
 21
-120.5
 31
0.0
  0
LINE
  5
1B9
  8
DATA
  6
CONTINUOUS
 62
     7
 10
76.5
 20
-121.0
 30
0.0
 11
87.5
 21
-121.0
 31
0.0
  0
LINE
  5
1BA
  8
DATA
  6
CONTINUOUS
 62
     7
 10
37.5
 20
-117.0
 30
0.0
 11
37.5
 21
-36.0
 31
0.0
  0
LINE
  5
1BB
  8
DATA
  6
CONTINUOUS
 62
     7
 10
87.5
 20
-117.0
 30
0.0
 11
87.5
 21
-36.0
 31
0.0
  0
LINE
  5
1BC
  8
DATA
  6
CONTINUOUS
 62
     7
 10
37.5
 20
-117.0
 30
0.0
 11
87.5
 21
-117.0
 31
0.0
  0
LINE
  5
1BD
  8
DATA
  6
CONTINUOUS
 62
     7
 10
54.0
 20
-120.0
 30
0.0
 11
51.0
 21
-117.0
 31
0.0
  0
LINE
  5
1BE
  8
DATA
  6
CONTINUOUS
 62
     7
 10
71.0
 20
-120.0
 30
0.0
 11
74.0
 21
-117.0
 31
0.0
  0
CIRCLE
  5
1BF
  8
DATA
  6
CONTINUOUS
 62
     7
 10
47.5
 20
-36.5
 30
0.0
 40
2.3999999999999981
  0
LINE
  5
1C0
  8
DATA
  6
CONTINUOUS
 62
     7
 10
46.5
 20
-36.5
 30
0.0
 11
48.5
 21
-36.5
 31
0.0
  0
LINE
  5
1C1
  8
DATA
  6
CONTINUOUS
 62
     7
 10
47.5
 20
-37.5
 30
0.0
 11
47.5
 21
-35.5
 31
0.0
  0
CIRCLE
  5
1C2
  8
DATA
  6
CONTINUOUS
 62
     7
 10
77.5
 20
-36.5
 30
0.0
 40
2.4000000000000048
  0
LINE
  5
1C3
  8
DATA
  6
CONTINUOUS
 62
     7
 10
76.5
 20
-36.5
 30
0.0
 11
78.5
 21
-36.5
 31
0.0
  0
LINE
  5
1C4
  8
DATA
  6
CONTINUOUS
 62
     7
 10
77.5
 20
-37.5
 30
0.0
 11
77.5
 21
-35.5
 31
0.0
  0
CIRCLE
  5
1C5
  8
DATA
  6
CONTINUOUS
 62
     7
 10
47.5
 20
-107.5
 30
0.0
 40
2.3999999999999981
  0
LINE
  5
1C6
  8
DATA
  6
CONTINUOUS
 62
     7
 10
46.5
 20
-107.5
 30
0.0
 11
48.5
 21
-107.5
 31
0.0
  0
LINE
  5
1C7
  8
DATA
  6
CONTINUOUS
 62
     7
 10
47.5
 20
-108.5
 30
0.0
 11
47.5
 21
-106.5
 31
0.0
  0
CIRCLE
  5
1C8
  8
DATA
  6
CONTINUOUS
 62
     7
 10
91.25
 20
-111.0
 30
0.0
 40
2.4000000000000048
  0
LINE
  5
1C9
  8
DATA
  6
CONTINUOUS
 62
     7
 10
90.25
 20
-111.0
 30
0.0
 11
92.249999999999986
 21
-111.0
 31
0.0
  0
LINE
  5
1CA
  8
DATA
  6
CONTINUOUS
 62
     7
 10
91.25
 20
-112.0
 30
0.0
 11
91.25
 21
-110.0
 31
0.0
  0
LINE
  5
1CB
  8
DATA
  6
CONTINUOUS
 62
     7
 10
40.499999999999993
 20
-96.0
 30
0.0
 11
40.499999999999993
 21
-47.0
 31
0.0
  0
LINE
  5
1CC
  8
DATA
  6
CONTINUOUS
 62
     7
 10
84.500000000000014
 20
-96.0
 30
0.0
 11
40.499999999999993
 21
-96.0
 31
0.0
  0
LINE
  5
1CD
  8
DATA
  6
CONTINUOUS
 62
     7
 10
84.500000000000014
 20
-47.0
 30
0.0
 11
84.500000000000014
 21
-96.0
 31
0.0
  0
LINE
  5
1CE
  8
DATA
  6
CONTINUOUS
 62
     7
 10
40.499999999999993
 20
-47.0
 30
0.0
 11
84.500000000000014
 21
-47.0
 31
0.0
  0
LINE
  5
1CF
  8
DATA
  6
CONTINUOUS
 62
     7
 10
-103.49999999254941
 20
-190.0
 30
0.0
 11
-54.500000007450581
 21
-190.0
 31
0.0
  0
LINE
  5
1D0
  8
DATA
  6
CONTINUOUS
 62
     7
 10
-110.0
 20
-166.1762508678608
 30
0.0
 11
-110.0
 21
-168.09999999999999
 31
0.0
  0
LINE
  5
1D1
  8
DATA
  6
CONTINUOUS
 62
     7
 10
-109.0148334742963
 20
-185.0
 30
0.0
 11
-87.5
 21
-185.0
 31
0.0
  0
LINE
  5
1D2
  8
DATA
  6
CONTINUOUS
 62
     7
 10
-70.500000000000014
 20
-185.0
 30
0.0
 11
-45.985166525703747
 21
-185.0
 31
0.0
  0
CIRCLE
  5
1D3
  8
DATA
  6
CONTINUOUS
 62
     7
 10
-97.0
 20
-176.0
 30
0.0
 40
6.0
  0
ARC
  5
1D4
  8
DATA
  6
CONTINUOUS
 62
     7
 10
-96.999999999999744
 20
-176.00000000000301
 30
0.0
 40
4.2500000000029843
 50
102.2257885931523
 51
77.774211406854903
  0
POLYLINE
  5
1D5
  8
DATA
  6
CONTINUOUS
 62
     7
 66
     1
 10
0.0
 20
0.0
 30
0.0
  0
VERTEX
  5
34D
  8
DATA
  6
CONTINUOUS
 62
     7
 10
-97.900000000000006
 20
-171.84638711481199
 30
0.0
  0
VERTEX
  5
34E
  8
DATA
  6
CONTINUOUS
 62
     7
 10
-97.900000000000006
 20
-171.35487061787711
 30
0.0
  0
VERTEX
  5
34F
  8
DATA
  6
CONTINUOUS
 62
     7
 10
-96.100000000000023
 20
-171.35487061787711
 30
0.0
  0
VERTEX
  5
350
  8
DATA
  6
CONTINUOUS
 62
     7
 10
-96.100000000000023
 20
-171.84638711481179
 30
0.0
  0
SEQEND
  5
351
  8
DATA
  6
CONTINUOUS
 62
     7
  0
ARC
  5
1DC
  8
DATA
  6
CONTINUOUS
 62
     7
 10
-78.999999999999901
 20
-178.2999999999999
 30
0.0
 40
7.9999999999998259
 50
51.779942141363421
 51
41.279611736771251
  0
LINE
  5
1DD
  8
DATA
  6
CONTINUOUS
 62
     7
 10
-90.5
 20
-190.0
 30
0.0
 11
-90.5
 21
-185.0
 31
0.0
  0
LINE
  5
1DE
  8
DATA
  6
CONTINUOUS
 62
     7
 10
-87.5
 20
-185.0
 30
0.0
 11
-87.5
 21
-190.0
 31
0.0
  0
LINE
  5
1DF
  8
DATA
  6
CONTINUOUS
 62
     7
 10
-70.5
 20
-190.0
 30
0.0
 11
-70.5
 21
-185.0
 31
0.0
  0
LINE
  5
1E0
  8
DATA
  6
CONTINUOUS
 62
     7
 10
-67.5
 20
-185.0
 30
0.0
 11
-67.5
 21
-190.0
 31
0.0
  0
LINE
  5
1E1
  8
DATA
  6
CONTINUOUS
 62
     7
 10
-104.0
 20
-189.49999999254939
 30
0.0
 11
-104.0
 21
-185.0
 31
0.0
  0
LINE
  5
1E2
  8
DATA
  6
CONTINUOUS
 62
     7
 10
-54.0
 20
-185.0
 30
0.0
 11
-54.0
 21
-189.49999999254939
 31
0.0
  0
CIRCLE
  5
1E3
  8
DATA
  6
CONTINUOUS
 62
     7
 10
-79.0
 20
-182.17500000000001
 30
0.0
 40
1.25
  0
CIRCLE
  5
1E4
  8
DATA
  6
CONTINUOUS
 62
     7
 10
-82.874999999999986
 20
-178.30000000000001
 30
0.0
 40
1.25
  0
CIRCLE
  5
1E5
  8
DATA
  6
CONTINUOUS
 62
     7
 10
-75.125
 20
-178.30000000000001
 30
0.0
 40
1.25
  0
LINE
  5
1E6
  8
DATA
  6
CONTINUOUS
 62
     7
 10
-110.0
 20
-168.40000000000001
 30
0.0
 11
-45.0
 21
-168.40000000000001
 31
0.0
  0
LINE
  5
1E7
  8
DATA
  6
CONTINUOUS
 62
     7
 10
-110.0
 20
-168.09999999999999
 30
0.0
 11
-45.0
 21
-168.09999999999999
 31
0.0
  0
LINE
  5
1E8
  8
DATA
  6
CONTINUOUS
 62
     7
 10
-110.0
 20
-168.40000000000001
 30
0.0
 11
-109.5146068250985
 21
-184.5150534067302
 31
0.0
  0
LINE
  5
1E9
  8
DATA
  6
CONTINUOUS
 62
     7
 10
-45.0
 20
-168.40000000000001
 30
0.0
 11
-45.485393174901517
 21
-184.5150534067302
 31
0.0
  0
CIRCLE
  5
1EA
  8
DATA
  6
CONTINUOUS
 62
     7
 10
-96.999999999999744
 20
-177.75000000000301
 30
0.0
 40
0.25
  0
CIRCLE
  5
1EB
  8
DATA
  6
CONTINUOUS
 62
     7
 10
-98.715156376661326
 20
-175.65252539143839
 30
0.0
 40
0.25
  0
CIRCLE
  5
1EC
  8
DATA
  6
CONTINUOUS
 62
     7
 10
-95.284843623338162
 20
-175.65252539143839
 30
0.0
 40
0.25
  0
ARC
  5
1ED
  8
DATA
  6
CONTINUOUS
 62
     7
 10
-109.0148334742963
 20
-184.49999999254939
 30
0.0
 40
0.5000000074505863
 50
181.7252548754719
 51
270.0
  0
ARC
  5
1EE
  8
DATA
  6
CONTINUOUS
 62
     7
 10
-103.49999999254941
 20
-189.49999999254939
 30
0.0
 40
0.5000000074505806
 50
180.0
 51
270.0
  0
ARC
  5
1EF
  8
DATA
  6
CONTINUOUS
 62
     7
 10
-54.500000007450581
 20
-189.49999999254939
 30
0.0
 40
0.5000000074505806
 50
270.0
 51
0.0
  0
ARC
  5
1F0
  8
DATA
  6
CONTINUOUS
 62
     7
 10
-45.985166525703747
 20
-184.49999999254939
 30
0.0
 40
0.5000000074505806
 50
270.0
 51
358.27474512452812
  0
LINE
  5
1F1
  8
DATA
  6
CONTINUOUS
 62
     7
 10
-89.500000000000014
 20
-184.0
 30
0.0
 11
-104.4999999999995
 21
-184.0
 31
0.0
  0
LINE
  5
1F2
  8
DATA
  6
CONTINUOUS
 62
     7
 10
-89.0
 20
-168.40000000000001
 30
0.0
 11
-89.500000000000014
 21
-184.0
 31
0.0
  0
LINE
  5
1F3
  8
DATA
  6
CONTINUOUS
 62
     7
 10
-104.9999999999995
 20
-168.40000000000001
 30
0.0
 11
-104.4999999999995
 21
-184.0
 31
0.0
  0
LINE
  5
1F4
  8
DATA
  6
CONTINUOUS
 62
     7
 10
-109.5
 20
-168.09999999999999
 30
0.0
 11
-109.5
 21
-168.40000000000001
 31
0.0
  0
LINE
  5
1F5
  8
DATA
  6
CONTINUOUS
 62
     7
 10
-45.499999999999993
 20
-168.09999999999999
 30
0.0
 11
-45.499999999999993
 21
-168.40000000000001
 31
0.0
  0
LINE
  5
1F6
  8
DATA
  6
CONTINUOUS
 62
     7
 10
0.9010580440152936
 20
-76.498944180371694
 30
0.0
 11
0.9306208504450985
 21
-62.498944187838013
 31
0.0
  0
LINE
  5
1F7
  8
DATA
  6
CONTINUOUS
 62
     7
 10
1.9010580440152931
 20
-76.498944180371694
 30
0.0
 11
1.9306208504450979
 21
-62.498944187838013
 31
0.0
  0
LINE
  5
1F8
  8
DATA
  6
CONTINUOUS
 62
     7
 10
-45.0
 20
-166.1762508678608
 30
0.0
 11
-45.0
 21
-168.09999999999999
 31
0.0
  0
LINE
  5
1F9
  8
DATA
  6
CONTINUOUS
 62
     7
 10
-51.500000007450581
 20
69.000885256590394
 30
0.0
 11
-100.49999999254941
 21
69.000885256590394
 31
0.0
  0
LINE
  5
1FA
  8
DATA
  6
CONTINUOUS
 62
     7
 10
-45.985166525703718
 20
64.000885256590891
 30
0.0
 11
-51.0
 21
64.000885256590891
 31
0.0
  0
LINE
  5
1FB
  8
DATA
  6
CONTINUOUS
 62
     7
 10
-101.0
 20
64.000885256590891
 30
0.0
 11
-109.0148334742963
 21
64.000885256590891
 31
0.0
  0
LINE
  5
1FC
  8
DATA
  6
CONTINUOUS
 62
     7
 10
-51.0
 20
68.50088524913987
 30
0.0
 11
-51.0
 21
64.000885256590891
 31
0.0
  0
LINE
  5
1FD
  8
DATA
  6
CONTINUOUS
 62
     7
 10
-101.0
 20
64.000885256590891
 30
0.0
 11
-101.0
 21
68.50088524913987
 31
0.0
  0
LINE
  5
1FE
  8
DATA
  6
CONTINUOUS
 62
     7
 10
-44.999999999999993
 20
52.87079497645847
 30
0.0
 11
-65.189926906555712
 21
52.87079497645847
 31
0.0
  0
LINE
  5
1FF
  8
DATA
  6
CONTINUOUS
 62
     7
 10
-89.810073093444288
 20
52.87079497645847
 30
0.0
 11
-110.0
 21
52.87079497645847
 31
0.0
  0
LINE
  5
200
  8
DATA
  6
CONTINUOUS
 62
     7
 10
-45.0
 20
52.570794976458451
 30
0.0
 11
-65.246614460290033
 21
52.570794976458451
 31
0.0
  0
LINE
  5
201
  8
DATA
  6
CONTINUOUS
 62
     7
 10
-89.753385539709967
 20
52.570794976458451
 30
0.0
 11
-110.0
 21
52.570794976458451
 31
0.0
  0
ARC
  5
202
  8
DATA
  6
CONTINUOUS
 62
     7
 10
-45.985166525703718
 20
63.50088524914031
 30
0.0
 40
0.5000000074505863
 50
1.7252548754719459
 51
90.0
  0
ARC
  5
203
  8
DATA
  6
CONTINUOUS
 62
     7
 10
-51.500000007450581
 20
68.50088524913987
 30
0.0
 40
0.5000000074505806
 50
0.0
 51
90.0
  0
ARC
  5
204
  8
DATA
  6
CONTINUOUS
 62
     7
 10
-100.49999999254941
 20
68.50088524913987
 30
0.0
 40
0.5000000074505238
 50
90.0
 51
180.0
  0
ARC
  5
205
  8
DATA
  6
CONTINUOUS
 62
     7
 10
-109.0148334742963
 20
63.50088524914031
 30
0.0
 40
0.5000000074505735
 50
90.0
 51
178.2747451245281
  0
LINE
  5
206
  8
DATA
  6
CONTINUOUS
 62
     7
 10
-45.499999999999993
 20
52.570794976458451
 30
0.0
 11
-45.499999999999993
 21
52.870794976458512
 31
0.0
  0
LINE
  5
207
  8
DATA
  6
CONTINUOUS
 62
     7
 10
-109.5
 20
52.570794976458451
 30
0.0
 11
-109.5
 21
52.87079497645847
 31
0.0
  0
LINE
  5
208
  8
DATA
  6
CONTINUOUS
 62
     7
 10
149.1271425238001
 20
-119.49999999254941
 30
0.0
 11
149.1271425238001
 21
-27.500000007450581
 31
0.0
  0
LINE
  5
209
  8
DATA
  6
CONTINUOUS
 62
     7
 10
148.62714251634961
 20
-120.0
 30
0.0
 11
124.0578739937356
 21
-120.0
 31
0.0
  0
LINE
  5
20A
  8
DATA
  6
CONTINUOUS
 62
     7
 10
143.9813926919702
 20
-27.0
 30
0.0
 11
143.9813926919702
 21
-21.0
 31
0.0
  0
LINE
  5
20B
  8
DATA
  6
CONTINUOUS
 62
     7
 10
143.9813926919702
 20
-5.999999999999992
 30
0.0
 11
143.9813926919702
 21
5.2999999999999998
 31
0.0
  0
LINE
  5
20C
  8
DATA
  6
CONTINUOUS
 62
     7
 10
128.18139269197019
 20
5.2999999895691872
 30
0.0
 11
128.18139269197019
 21
-6.0
 31
0.0
  0
LINE
  5
20D
  8
DATA
  6
CONTINUOUS
 62
     7
 10
128.18139269197019
 20
-21.0
 30
0.0
 11
128.18139269197019
 21
-27.0
 31
0.0
  0
LINE
  5
20E
  8
DATA
  6
CONTINUOUS
 62
     7
 10
143.28139269197021
 20
6.0
 30
0.0
 11
128.881392702401
 21
6.0
 31
0.0
  0
LINE
  5
20F
  8
DATA
  6
CONTINUOUS
 62
     7
 10
148.58139269197019
 20
-16.79999999999999
 30
0.0
 11
148.58139269197019
 21
-8.9999999999999911
 31
0.0
  0
LINE
  5
210
  8
DATA
  6
CONTINUOUS
 62
     7
 10
124.5813926994207
 20
-21.0
 30
0.0
 11
147.58139268451961
 21
-21.0
 31
0.0
  0
LINE
  5
211
  8
DATA
  6
CONTINUOUS
 62
     7
 10
123.58139269197009
 20
-9.0
 30
0.0
 11
123.58139269197009
 21
-16.79999999999999
 31
0.0
  0
LINE
  5
212
  8
DATA
  6
CONTINUOUS
 62
     7
 10
147.58139269197019
 20
-6.0
 30
0.0
 11
124.5813926994207
 21
-6.0
 31
0.0
  0
ARC
  5
213
  8
DATA
  6
CONTINUOUS
 62
     7
 10
143.28139269197021
 20
5.2999999999999998
 30
0.0
 40
0.6999999999999887
 50
0.0
 51
90.0
  0
ARC
  5
214
  8
DATA
  6
CONTINUOUS
 62
     7
 10
128.881392702401
 20
5.2999999895691872
 30
0.0
 40
0.700000010430813
 50
90.0
 51
180.0
  0
LINE
  5
215
  8
DATA
  6
CONTINUOUS
 62
     7
 10
148.58139269197011
 20
-9.0
 30
0.0
 11
123.58139269197009
 21
-9.0
 31
0.0
  0
LINE
  5
216
  8
DATA
  6
CONTINUOUS
 62
     7
 10
148.58139269197019
 20
-16.79999999999999
 30
0.0
 11
123.58139269197009
 21
-16.79999999999999
 31
0.0
  0
LINE
  5
217
  8
DATA
  6
CONTINUOUS
 62
     7
 10
146.1913752616415
 20
-16.79999999999999
 30
0.0
 11
146.1913752616415
 21
-9.0
 31
0.0
  0
LINE
  5
218
  8
DATA
  6
CONTINUOUS
 62
     7
 10
145.99137526164151
 20
-16.79999999999999
 30
0.0
 11
145.99137526164151
 21
-9.0
 31
0.0
  0
LINE
  5
219
  8
DATA
  6
CONTINUOUS
 62
     7
 10
145.99137526164151
 20
-16.79999999999999
 30
0.0
 11
145.99137526164151
 21
-9.0
 31
0.0
  0
LINE
  5
21A
  8
DATA
  6
CONTINUOUS
 62
     7
 10
144.39137526164151
 20
-16.79999999999999
 30
0.0
 11
144.39137526164151
 21
-9.0
 31
0.0
  0
LINE
  5
21B
  8
DATA
  6
CONTINUOUS
 62
     7
 10
144.1913752616415
 20
-16.79999999999999
 30
0.0
 11
144.1913752616415
 21
-9.0
 31
0.0
  0
LINE
  5
21C
  8
DATA
  6
CONTINUOUS
 62
     7
 10
144.1913752616415
 20
-16.79999999999999
 30
0.0
 11
144.1913752616415
 21
-9.0
 31
0.0
  0
LINE
  5
21D
  8
DATA
  6
CONTINUOUS
 62
     7
 10
142.59137526164159
 20
-16.79999999999999
 30
0.0
 11
142.59137526164159
 21
-9.0
 31
0.0
  0
LINE
  5
21E
  8
DATA
  6
CONTINUOUS
 62
     7
 10
142.3913752616416
 20
-16.79999999999999
 30
0.0
 11
142.3913752616416
 21
-9.0
 31
0.0
  0
LINE
  5
21F
  8
DATA
  6
CONTINUOUS
 62
     7
 10
142.39137526164151
 20
-16.79999999999999
 30
0.0
 11
142.39137526164151
 21
-9.0
 31
0.0
  0
LINE
  5
220
  8
DATA
  6
CONTINUOUS
 62
     7
 10
140.7913752616416
 20
-16.79999999999999
 30
0.0
 11
140.7913752616416
 21
-9.0
 31
0.0
  0
LINE
  5
221
  8
DATA
  6
CONTINUOUS
 62
     7
 10
140.5913752616415
 20
-16.79999999999999
 30
0.0
 11
140.5913752616415
 21
-9.0
 31
0.0
  0
LINE
  5
222
  8
DATA
  6
CONTINUOUS
 62
     7
 10
140.5913752616415
 20
-16.79999999999999
 30
0.0
 11
140.5913752616415
 21
-9.0
 31
0.0
  0
LINE
  5
223
  8
DATA
  6
CONTINUOUS
 62
     7
 10
138.99137526164151
 20
-16.79999999999999
 30
0.0
 11
138.99137526164151
 21
-9.0
 31
0.0
  0
LINE
  5
224
  8
DATA
  6
CONTINUOUS
 62
     7
 10
138.7913752616416
 20
-16.79999999999999
 30
0.0
 11
138.7913752616416
 21
-9.0
 31
0.0
  0
LINE
  5
225
  8
DATA
  6
CONTINUOUS
 62
     7
 10
138.7913752616416
 20
-16.79999999999999
 30
0.0
 11
138.7913752616416
 21
-9.0
 31
0.0
  0
LINE
  5
226
  8
DATA
  6
CONTINUOUS
 62
     7
 10
137.1913752616415
 20
-16.79999999999999
 30
0.0
 11
137.1913752616415
 21
-9.0
 31
0.0
  0
LINE
  5
227
  8
DATA
  6
CONTINUOUS
 62
     7
 10
136.99137526164151
 20
-16.79999999999999
 30
0.0
 11
136.99137526164151
 21
-9.0
 31
0.0
  0
LINE
  5
228
  8
DATA
  6
CONTINUOUS
 62
     7
 10
136.99137526164151
 20
-16.79999999999999
 30
0.0
 11
136.99137526164151
 21
-9.0
 31
0.0
  0
LINE
  5
229
  8
DATA
  6
CONTINUOUS
 62
     7
 10
135.39137526164151
 20
-16.79999999999999
 30
0.0
 11
135.39137526164151
 21
-9.0
 31
0.0
  0
LINE
  5
22A
  8
DATA
  6
CONTINUOUS
 62
     7
 10
135.1913752616415
 20
-16.79999999999999
 30
0.0
 11
135.1913752616415
 21
-9.0
 31
0.0
  0
LINE
  5
22B
  8
DATA
  6
CONTINUOUS
 62
     7
 10
135.1913752616415
 20
-16.79999999999999
 30
0.0
 11
135.1913752616415
 21
-9.0
 31
0.0
  0
LINE
  5
22C
  8
DATA
  6
CONTINUOUS
 62
     7
 10
133.59137526164159
 20
-16.79999999999999
 30
0.0
 11
133.59137526164159
 21
-9.0
 31
0.0
  0
LINE
  5
22D
  8
DATA
  6
CONTINUOUS
 62
     7
 10
133.39137526164151
 20
-16.79999999999999
 30
0.0
 11
133.39137526164151
 21
-9.0
 31
0.0
  0
LINE
  5
22E
  8
DATA
  6
CONTINUOUS
 62
     7
 10
133.39137526164151
 20
-16.79999999999999
 30
0.0
 11
133.39137526164151
 21
-9.0
 31
0.0
  0
LINE
  5
22F
  8
DATA
  6
CONTINUOUS
 62
     7
 10
131.79137526164149
 20
-16.79999999999999
 30
0.0
 11
131.79137526164149
 21
-9.0
 31
0.0
  0
LINE
  5
230
  8
DATA
  6
CONTINUOUS
 62
     7
 10
131.5913752616415
 20
-16.79999999999999
 30
0.0
 11
131.5913752616415
 21
-9.0
 31
0.0
  0
LINE
  5
231
  8
DATA
  6
CONTINUOUS
 62
     7
 10
131.5913752616415
 20
-16.79999999999999
 30
0.0
 11
131.5913752616415
 21
-9.0
 31
0.0
  0
LINE
  5
232
  8
DATA
  6
CONTINUOUS
 62
     7
 10
129.99137526164151
 20
-16.79999999999999
 30
0.0
 11
129.99137526164151
 21
-9.0
 31
0.0
  0
LINE
  5
233
  8
DATA
  6
CONTINUOUS
 62
     7
 10
129.79137526164149
 20
-16.79999999999999
 30
0.0
 11
129.79137526164149
 21
-9.0
 31
0.0
  0
LINE
  5
234
  8
DATA
  6
CONTINUOUS
 62
     7
 10
129.79137526164149
 20
-16.79999999999999
 30
0.0
 11
129.79137526164149
 21
-9.0
 31
0.0
  0
LINE
  5
235
  8
DATA
  6
CONTINUOUS
 62
     7
 10
128.19137526164161
 20
-16.79999999999999
 30
0.0
 11
128.19137526164161
 21
-9.0
 31
0.0
  0
LINE
  5
236
  8
DATA
  6
CONTINUOUS
 62
     7
 10
127.99137526164149
 20
-16.79999999999999
 30
0.0
 11
127.99137526164149
 21
-9.0
 31
0.0
  0
LINE
  5
237
  8
DATA
  6
CONTINUOUS
 62
     7
 10
127.99137526164149
 20
-16.79999999999999
 30
0.0
 11
127.99137526164149
 21
-9.0
 31
0.0
  0
LINE
  5
238
  8
DATA
  6
CONTINUOUS
 62
     7
 10
126.3913752616415
 20
-16.79999999999999
 30
0.0
 11
126.3913752616415
 21
-9.0
 31
0.0
  0
LINE
  5
239
  8
DATA
  6
CONTINUOUS
 62
     7
 10
126.1913752616415
 20
-16.79999999999999
 30
0.0
 11
126.1913752616415
 21
-9.0
 31
0.0
  0
LINE
  5
23A
  8
DATA
  6
CONTINUOUS
 62
     7
 10
126.1913752616415
 20
-16.79999999999999
 30
0.0
 11
126.1913752616415
 21
-9.0
 31
0.0
  0
LINE
  5
23B
  8
DATA
  6
CONTINUOUS
 62
     7
 10
124.5913752616415
 20
-16.79999999999999
 30
0.0
 11
124.5913752616415
 21
-9.0
 31
0.0
  0
LINE
  5
23C
  8
DATA
  6
CONTINUOUS
 62
     7
 10
124.3913752616415
 20
-16.79999999999999
 30
0.0
 11
124.3913752616415
 21
-9.0
 31
0.0
  0
LINE
  5
23D
  8
DATA
  6
CONTINUOUS
 62
     7
 10
124.3913752616415
 20
-16.79999999999999
 30
0.0
 11
124.3913752616415
 21
-9.0
 31
0.0
  0
LINE
  5
23E
  8
DATA
  6
CONTINUOUS
 62
     7
 10
147.79137526164149
 20
-9.0
 30
0.0
 11
147.79137526164149
 21
-16.79999999999999
 31
0.0
  0
LINE
  5
23F
  8
DATA
  6
CONTINUOUS
 62
     7
 10
148.08139269197019
 20
-6.5
 30
0.0
 11
148.08139269197019
 21
-9.0
 31
0.0
  0
LINE
  5
240
  8
DATA
  6
CONTINUOUS
 62
     7
 10
148.08139269197019
 20
-16.79999999999999
 30
0.0
 11
148.08139269197019
 21
-20.499999992549419
 31
0.0
  0
LINE
  5
241
  8
DATA
  6
CONTINUOUS
 62
     7
 10
124.08139269197009
 20
-6.5000000074505797
 30
0.0
 11
124.08139269197009
 21
-9.0
 31
0.0
  0
LINE
  5
242
  8
DATA
  6
CONTINUOUS
 62
     7
 10
124.08139269197009
 20
-16.79999999999999
 30
0.0
 11
124.08139269197009
 21
-20.499999992549419
 31
0.0
  0
ARC
  5
243
  8
DATA
  6
CONTINUOUS
 62
     7
 10
147.58139269197019
 20
-6.5
 30
0.0
 40
0.4999999999999716
 50
0.0
 51
90.0
  0
ARC
  5
244
  8
DATA
  6
CONTINUOUS
 62
     7
 10
124.5813926994207
 20
-6.5000000074505797
 30
0.0
 40
0.5000000074505806
 50
90.0
 51
180.0
  0
ARC
  5
245
  8
DATA
  6
CONTINUOUS
 62
     7
 10
147.58139268451961
 20
-20.499999992549419
 30
0.0
 40
0.5000000074505806
 50
270.0
 51
0.0
  0
ARC
  5
246
  8
DATA
  6
CONTINUOUS
 62
     7
 10
124.5813926994207
 20
-20.499999992549419
 30
0.0
 40
0.5000000074505806
 50
180.0
 51
270.0
  0
LINE
  5
247
  8
DATA
  6
CONTINUOUS
 62
     7
 10
148.62714251634961
 20
-27.0
 30
0.0
 11
120.6271425238001
 21
-27.0
 31
0.0
  0
LINE
  5
248
  8
DATA
  6
CONTINUOUS
 62
     7
 10
140.62714252380019
 20
-121.0
 30
0.0
 11
129.62714252380019
 21
-121.0
 31
0.0
  0
LINE
  5
249
  8
DATA
  6
CONTINUOUS
 62
     7
 10
144.12714252380019
 20
-35.0
 30
0.0
 11
144.12714252380019
 21
-120.0
 31
0.0
  0
LINE
  5
24A
  8
DATA
  6
CONTINUOUS
 62
     7
 10
141.12714252380019
 20
-120.0
 30
0.0
 11
141.12714252380019
 21
-120.5
 31
0.0
  0
LINE
  5
24B
  8
DATA
  6
CONTINUOUS
 62
     7
 10
129.12714252380019
 20
-120.0
 30
0.0
 11
129.12714252380019
 21
-120.5
 31
0.0
  0
LINE
  5
24C
  8
DATA
  6
CONTINUOUS
 62
     7
 10
149.1271425238001
 20
-117.0
 30
0.0
 11
144.12714252380019
 21
-117.0
 31
0.0
  0
LINE
  5
24D
  8
DATA
  6
CONTINUOUS
 62
     7
 10
149.1271425238001
 20
-35.0
 30
0.0
 11
144.12714252380019
 21
-35.0
 31
0.0
  0
LINE
  5
24E
  8
DATA
  6
CONTINUOUS
 62
     7
 10
132.52714252380019
 20
-27.0
 30
0.0
 11
132.52714252380019
 21
-119.9999999999999
 31
0.0
  0
ARC
  5
24F
  8
DATA
  6
CONTINUOUS
 62
     7
 10
148.62714251634961
 20
-119.49999999254941
 30
0.0
 40
0.5000000074505806
 50
270.0
 51
0.0
  0
ARC
  5
250
  8
DATA
  6
CONTINUOUS
 62
     7
 10
148.62714251634961
 20
-27.500000007450581
 30
0.0
 40
0.5000000074505522
 50
0.0
 51
90.0
  0
LINE
  5
251
  8
DATA
  6
CONTINUOUS
 62
     7
 10
120.1271425238001
 20
-31.850000000000001
 30
0.0
 11
120.1271425238001
 21
-27.5
 31
0.0
  0
ARC
  5
252
  8
DATA
  6
CONTINUOUS
 62
     7
 10
972.62714252380067
 20
-58.5
 30
0.0
 40
851.72325317558443
 50
182.65140068112569
 51
184.07808671918241
  0
ARC
  5
253
  8
DATA
  6
CONTINUOUS
 62
     7
 10
124.0578739937356
 20
-119.0
 30
0.0
 40
0.9999999999999308
 50
184.07808671917931
 51
270.0
  0
ARC
  5
254
  8
DATA
  6
CONTINUOUS
 62
     7
 10
725.91285680951501
 20
-35.071428571428569
 30
0.0
 40
602.79851610667458
 50
183.9885160171491
 51
188.0993776705638
  0
ARC
  5
255
  8
DATA
  6
CONTINUOUS
 62
     7
 10
725.91285680951501
 20
-35.071428571428569
 30
0.0
 40
602.79851610667458
 50
180.37341192755369
 51
182.56040300048849
  0
LINE
  5
256
  8
DATA
  6
CONTINUOUS
 62
     7
 10
128.18139269197019
 20
-5.6214602176516593
 30
0.0
 11
126.6813926919701
 21
-5.6214602176516593
 31
0.0
  0
LINE
  5
257
  8
DATA
  6
CONTINUOUS
 62
     7
 10
126.6813926919701
 20
-5.6214602176516593
 30
0.0
 11
128.18139269197019
 21
-3.0
 31
0.0
  0
ARC
  5
258
  8
DATA
  6
CONTINUOUS
 62
     7
 10
-77.499999999999204
 20
55.041532278403551
 30
0.0
 40
7.8999999999989159
 50
320.46187904782818
 51
309.83683043297049
  0
CIRCLE
  5
259
  8
DATA
  6
CONTINUOUS
 62
     7
 10
-77.5
 20
55.04153227840429
 30
0.0
 40
12.0
  0
CIRCLE
  5
25A
  8
DATA
  6
CONTINUOUS
 62
     7
 10
-77.5
 20
55.04153227840429
 30
0.0
 40
12.5
  0
LINE
  5
25B
  8
DATA
  6
CONTINUOUS
 62
     7
 10
-15.0
 20
-117.65614035087719
 30
0.0
 11
-3.3999999999999981
 21
-118.4701754385965
 31
0.0
  0
LINE
  5
25C
  8
DATA
  6
CONTINUOUS
 62
     7
 10
-3.100000000000001
 20
-118.4912280701754
 30
0.0
 11
6.0602428118734313
 21
-119.134052127149
 31
0.0
  0
ARC
  5
25D
  8
DATA
  6
CONTINUOUS
 62
     7
 10
-117.9684210526341
 20
-62.568421052631457
 30
0.0
 40
123.36897116816699
 50
353.46923512532612
 51
0.1711046349454932
  0
LINE
  5
25E
  8
DATA
  6
CONTINUOUS
 62
     7
 10
8.9999999999999911
 20
-31.850000000000001
 30
0.0
 11
6.2551530915650702
 21
-29.105153091565089
 31
0.0
  0
ARC
  5
25F
  8
DATA
  6
CONTINUOUS
 62
     7
 10
-39.527549684348983
 20
-34.444795504765551
 30
0.0
 40
48.596872760276561
 50
356.27739107171692
 51
3.060722956967652
  0
LINE
  5
260
  8
DATA
  6
CONTINUOUS
 62
     7
 10
6.2551530915650728
 20
-29.105153091565089
 30
0.0
 11
6.1074230500517341
 21
-27.0
 31
0.0
  0
LINE
  5
261
  8
DATA
  6
CONTINUOUS
 62
     7
 10
6.0
 20
-38.999999999999851
 30
0.0
 11
-3.100000000000001
 21
-38.999999999999851
 31
0.0
  0
LINE
  5
262
  8
DATA
  6
CONTINUOUS
 62
     7
 10
-3.4000000000000021
 20
-38.999999999999851
 30
0.0
 11
-15.0
 21
-38.999999999999851
 31
0.0
  0
ARC
  5
263
  8
DATA
  6
CONTINUOUS
 62
     7
 10
8.4999999999999911
 20
-27.5
 30
0.0
 40
0.5
 50
0.0
 51
90.0
  0
LINE
  5
264
  8
DATA
  6
CONTINUOUS
 62
     7
 10
-94.559208284200807
 20
-164.0
 30
0.0
 11
-60.440791715799179
 21
-164.0
 31
0.0
  0
ARC
  5
265
  8
DATA
  6
CONTINUOUS
 62
     7
 10
-109.0
 20
-166.1762508678608
 30
0.0
 40
0.999999999999987
 50
116.3814114869586
 51
180.00000000000159
  0
ARC
  5
266
  8
DATA
  6
CONTINUOUS
 62
     7
 10
-99.559654918516983
 20
-162.999110125306
 30
0.0
 40
1.999999999999998
 50
38.480198248342738
 51
73.750092788798312
  0
ARC
  5
267
  8
DATA
  6
CONTINUOUS
 62
     7
 10
-99.559654918516983
 20
-162.999110125306
 30
0.0
 40
2.0000000000000031
 50
108.67335973544979
 51
116.3814114869582
  0
LINE
  5
268
  8
DATA
  6
CONTINUOUS
 62
     7
 10
-100.4483440372104
 20
-161.2073981924564
 30
0.0
 11
-109.4443445593467
 21
-165.2803949014359
 31
0.0
  0
LINE
  5
269
  8
DATA
  6
CONTINUOUS
 62
     7
 10
-97.994008409004763
 20
-161.7546218741553
 30
0.0
 11
-96.722893531852449
 21
-163.07809194914341
 31
0.0
  0
ARC
  5
26A
  8
DATA
  6
CONTINUOUS
 62
     7
 10
-94.559208284200807
 20
-161.0
 30
0.0
 40
3.0000000000000031
 50
223.8440059257365
 51
270.0
  0
ARC
  5
26B
  8
DATA
  6
CONTINUOUS
 62
     7
 10
-46.0
 20
-166.1762508678608
 30
0.0
 40
1.0
 50
359.99999999999841
 51
63.618588513041388
  0
ARC
  5
26C
  8
DATA
  6
CONTINUOUS
 62
     7
 10
-55.440345081483017
 20
-162.999110125306
 30
0.0
 40
2.0000000000000111
 50
103.7779881709929
 51
141.5198017516575
  0
LINE
  5
26D
  8
DATA
  6
CONTINUOUS
 62
     7
 10
-54.299999999999848
 20
-161.3213370373592
 30
0.0
 11
-45.555655440653283
 21
-165.2803949014359
 31
0.0
  0
LINE
  5
26E
  8
DATA
  6
CONTINUOUS
 62
     7
 10
-57.005991590995251
 20
-161.7546218741553
 30
0.0
 11
-58.277106468147537
 21
-163.07809194914341
 31
0.0
  0
ARC
  5
26F
  8
DATA
  6
CONTINUOUS
 62
     7
 10
-60.440791715799179
 20
-161.0
 30
0.0
 40
3.0
 50
270.0
 51
316.15599407426362
  0
ARC
  5
270
  8
DATA
  6
CONTINUOUS
 62
     7
 10
-132.2397499847271
 20
-42.650000000000013
 30
0.0
 40
141.2968106245701
 50
357.91002483905709
 51
2.0482084536077418
  0
ARC
  5
271
  8
DATA
  6
CONTINUOUS
 62
     7
 10
-399.83193802415252
 20
-59.40146674650321
 30
0.0
 40
408.95951314731531
 50
354.59830519969421
 51
1.625188076124459
  0
ARC
  5
272
  8
DATA
  6
CONTINUOUS
 62
     7
 10
-6.2818394484358251
 20
-29.64241002163514
 30
0.0
 40
15.44046859523201
 50
322.69605757321767
 51
351.78000785791062
  0
ARC
  5
273
  8
DATA
  6
CONTINUOUS
 62
     7
 10
-27.584026418699441
 20
-33.18327358459473
 30
0.0
 40
34.084030522864722
 50
350.17389746737479
 51
6.871846362711949
  0
ARC
  5
274
  8
DATA
  6
CONTINUOUS
 62
     7
 10
76.5
 20
-120.5
 30
0.0
 40
0.5
 50
180.0
 51
270.0
  0
ARC
  5
275
  8
DATA
  6
CONTINUOUS
 62
     7
 10
87.5
 20
-120.5
 30
0.0
 40
0.5
 50
270.0
 51
0.0
  0
ARC
  5
276
  8
DATA
  6
CONTINUOUS
 62
     7
 10
-11.5
 20
-120.5
 30
0.0
 40
0.5
 50
180.0
 51
270.0
  0
ARC
  5
277
  8
DATA
  6
CONTINUOUS
 62
     7
 10
-0.5
 20
-120.5
 30
0.0
 40
0.5
 50
270.0
 51
0.0
  0
ARC
  5
278
  8
DATA
  6
CONTINUOUS
 62
     7
 10
-102.5
 20
-120.5
 30
0.0
 40
0.5
 50
180.0
 51
270.0
  0
ARC
  5
279
  8
DATA
  6
CONTINUOUS
 62
     7
 10
-91.5
 20
-120.5
 30
0.0
 40
0.5
 50
270.0
 51
0.0
  0
LINE
  5
27A
  8
DATA
  6
CONTINUOUS
 62
     7
 10
-60.440791715799179
 20
43.00088525659055
 30
0.0
 11
-70.627414964085659
 21
43.00088525659055
 31
0.0
  0
LINE
  5
27B
  8
DATA
  6
CONTINUOUS
 62
     7
 10
-84.372585035914284
 20
43.00088525659055
 30
0.0
 11
-94.559208284200807
 21
43.00088525659055
 31
0.0
  0
ARC
  5
27C
  8
DATA
  6
CONTINUOUS
 62
     7
 10
-55.440345081483017
 20
41.999995381896568
 30
0.0
 40
2.00000000000002
 50
218.48019824834361
 51
296.38141148695752
  0
LINE
  5
27D
  8
DATA
  6
CONTINUOUS
 62
     7
 10
-54.551655962789567
 20
40.208283449046853
 30
0.0
 11
-46.695582105307437
 21
43.76517107797595
 31
0.0
  0
LINE
  5
27E
  8
DATA
  6
CONTINUOUS
 62
     7
 10
-57.005991590995251
 20
40.755507130745812
 30
0.0
 11
-58.277106468147537
 21
42.078977205733921
 31
0.0
  0
ARC
  5
27F
  8
DATA
  6
CONTINUOUS
 62
     7
 10
-60.440791715799179
 20
40.00088525659045
 30
0.0
 40
3.0000000000000422
 50
43.844005925737292
 51
90.0
  0
ARC
  5
280
  8
DATA
  6
CONTINUOUS
 62
     7
 10
-99.559654918516983
 20
41.999995381896568
 30
0.0
 40
2.0000000000000502
 50
243.61858851304251
 51
321.51980175165647
  0
LINE
  5
281
  8
DATA
  6
CONTINUOUS
 62
     7
 10
-100.4483440372104
 20
40.208283449046853
 30
0.0
 11
-108.0809263470792
 21
43.663983851977683
 31
0.0
  0
LINE
  5
282
  8
DATA
  6
CONTINUOUS
 62
     7
 10
-97.994008409004763
 20
40.755507130745812
 30
0.0
 11
-96.722893531852449
 21
42.078977205733921
 31
0.0
  0
ARC
  5
283
  8
DATA
  6
CONTINUOUS
 62
     7
 10
-94.559208284200807
 20
40.00088525659045
 30
0.0
 40
3.0000000000000848
 50
90.0
 51
136.15599407426271
  0
LINE
  5
284
  8
DATA
  6
CONTINUOUS
 62
     7
 10
144.12714252380019
 20
-117.65614035087719
 30
0.0
 11
132.52714252380019
 21
-118.4701754385965
 31
0.0
  0
LINE
  5
285
  8
DATA
  6
CONTINUOUS
 62
     7
 10
132.22714252380021
 20
-118.4912280701754
 30
0.0
 11
123.06689971192669
 21
-119.134052127149
 31
0.0
  0
LINE
  5
286
  8
DATA
  6
CONTINUOUS
 62
     7
 10
120.1271425238001
 20
-31.850000000000001
 30
0.0
 11
122.871989432235
 21
-29.105153091565089
 31
0.0
  0
ARC
  5
287
  8
DATA
  6
CONTINUOUS
 62
     7
 10
168.6546922081489
 20
-34.444795504765551
 30
0.0
 40
48.596872760276391
 50
176.9392770430324
 51
183.72260892828311
  0
LINE
  5
288
  8
DATA
  6
CONTINUOUS
 62
     7
 10
122.871989432235
 20
-29.105153091565089
 30
0.0
 11
123.0197194737483
 21
-27.0
 31
0.0
  0
LINE
  5
289
  8
DATA
  6
CONTINUOUS
 62
     7
 10
123.4271425238001
 20
-38.999999999999851
 30
0.0
 11
132.52714252380019
 21
-38.999999999999851
 31
0.0
  0
LINE
  5
28A
  8
DATA
  6
CONTINUOUS
 62
     7
 10
132.52714252380019
 20
-38.999999999999851
 30
0.0
 11
144.12714252380019
 21
-38.999999999999851
 31
0.0
  0
ARC
  5
28B
  8
DATA
  6
CONTINUOUS
 62
     7
 10
120.6271425238001
 20
-27.5
 30
0.0
 40
0.5
 50
90.0
 51
180.0
  0
ARC
  5
28C
  8
DATA
  6
CONTINUOUS
 62
     7
 10
261.36689250852697
 20
-42.650000000000013
 30
0.0
 40
141.2968106245699
 50
177.95179154639229
 51
182.08997516094291
  0
ARC
  5
28D
  8
DATA
  6
CONTINUOUS
 62
     7
 10
528.95908054795188
 20
-59.40146674650321
 30
0.0
 40
408.95951314731479
 50
178.37481192387551
 51
185.40169480030571
  0
ARC
  5
28E
  8
DATA
  6
CONTINUOUS
 62
     7
 10
135.40898197223601
 20
-29.64241002163514
 30
0.0
 40
15.440468595232099
 50
188.2199921420893
 51
217.3039424267821
  0
ARC
  5
28F
  8
DATA
  6
CONTINUOUS
 62
     7
 10
156.7111689424994
 20
-33.18327358459473
 30
0.0
 40
34.084030522864609
 50
173.12815363728811
 51
189.8261025326253
  0
ARC
  5
290
  8
DATA
  6
CONTINUOUS
 62
     7
 10
140.62714252380019
 20
-120.5
 30
0.0
 40
0.5
 50
270.0
 51
0.0
  0
ARC
  5
291
  8
DATA
  6
CONTINUOUS
 62
     7
 10
129.62714252380019
 20
-120.5
 30
0.0
 40
0.5
 50
180.0
 51
270.0
  0
LINE
  5
292
  8
DATA
  6
CONTINUOUS
 62
     7
 10
124.5743116302057
 20
-76.999999999999432
 30
0.0
 11
123.7161256151109
 21
-61.999999999999808
 31
0.0
  0
LINE
  5
293
  8
DATA
  6
CONTINUOUS
 62
     7
 10
143.12714252380019
 20
-47.0
 30
0.0
 11
143.12714252380019
 21
-112.0
 31
0.0
  0
LINE
  5
294
  8
DATA
  6
CONTINUOUS
 62
     7
 10
143.12714252380019
 20
-112.0
 30
0.0
 11
133.12714252380019
 21
-112.0
 31
0.0
  0
LINE
  5
295
  8
DATA
  6
CONTINUOUS
 62
     7
 10
133.12714252380019
 20
-112.0
 30
0.0
 11
133.12714252380019
 21
-120.0
 31
0.0
  0
LINE
  5
296
  8
DATA
  6
CONTINUOUS
 62
     7
 10
143.12714252380019
 20
-47.0
 30
0.0
 11
132.52714252380019
 21
-47.0
 31
0.0
  0
ARC
  5
297
  8
DATA
  6
CONTINUOUS
 62
     7
 10
-77.514554302833574
 20
55.054624417358703
 30
0.0
 40
13.86813661930529
 50
240.36208745258381
 51
270.06013066514191
  0
ARC
  5
298
  8
DATA
  6
CONTINUOUS
 62
     7
 10
-77.485445697166426
 20
55.054624417358703
 30
0.0
 40
13.86813661930529
 50
269.9398693348582
 51
299.63791254741608
  0
LINE
  5
299
  8
DATA
  6
CONTINUOUS
 62
     7
 10
-79.0
 20
46.0
 30
0.0
 11
-79.0
 21
47.285244506538149
 31
0.0
  0
LINE
  5
29A
  8
DATA
  6
CONTINUOUS
 62
     7
 10
-76.0
 20
46.0
 30
0.0
 11
-76.0
 21
47.285244506538149
 31
0.0
  0
LINE
  5
29B
  8
DATA
  6
CONTINUOUS
 62
     7
 10
-79.0
 20
46.0
 30
0.0
 11
-75.999999999999986
 21
46.0
 31
0.0
  0
CIRCLE
  5
29C
  8
DATA
  6
CONTINUOUS
 62
     7
 10
-77.5
 20
59.04153227840429
 30
0.0
 40
1.25
  0
CIRCLE
  5
29D
  8
DATA
  6
CONTINUOUS
 62
     7
 10
-81.499978574429804
 20
55.054624417358703
 30
0.0
 40
1.25
  0
CIRCLE
  5
29E
  8
DATA
  6
CONTINUOUS
 62
     7
 10
-73.5
 20
55.04153227840429
 30
0.0
 40
1.25
  0
CIRCLE
  5
29F
  8
DATA
  6
CONTINUOUS
 62
     7
 10
-77.514554302833574
 20
55.054624417358703
 30
0.0
 40
7.25
  0
ARC
  5
2A0
  8
DATA
  6
CONTINUOUS
 62
     7
 10
-71.805837808887915
 20
49.376979280418126
 30
0.0
 40
0.7500000000000066
 50
212.378728263337
 51
57.919981217462897
  0
ARC
  5
2A1
  8
DATA
  6
CONTINUOUS
 62
     7
 10
-99.551981542711204
 20
-163.36188719241929
 30
0.0
 40
2.3486622012386338
 50
76.407224590331168
 51
106.0162279339154
  0
ARC
  5
2A2
  8
DATA
  6
CONTINUOUS
 62
     7
 10
-55.46587900366805
 20
-163.37290133932561
 30
0.0
 40
2.3597012387793761
 50
60.390958227719352
 51
101.01322276712909
  0
ARC
  5
2A3
  8
DATA
  6
CONTINUOUS
 62
     7
 10
-107.256022822429
 20
45.485942735986789
 30
0.0
 40
2.0000000000000062
 50
184.69237002804809
 51
245.6410559905236
  0
ARC
  5
2A4
  8
DATA
  6
CONTINUOUS
 62
     7
 10
-47.714868571903878
 20
45.485942735986789
 30
0.0
 40
2.0000000000000071
 50
300.64006861431699
 51
355.30762997195188
  0
ARC
  5
2A5
  8
DATA
  6
CONTINUOUS
 62
     7
 10
-73.631525468087546
 20
-172.63691678978589
 30
0.0
 40
0.7499999999999952
 50
329.09528886988249
 51
123.9642650082484
  0
LINE
  5
2A6
  8
DATA
  6
CONTINUOUS
 62
     7
 10
-110.0
 20
52.87079497645847
 30
0.0
 11
-109.5146068250985
 21
63.515938663321101
 31
0.0
  0
LINE
  5
2A7
  8
DATA
  6
CONTINUOUS
 62
     7
 10
-109.2493194015872
 20
45.322331160857942
 30
0.0
 11
-110.0
 21
52.570794976458451
 31
0.0
  0
LINE
  5
2A8
  8
DATA
  6
CONTINUOUS
 62
     7
 10
-45.721571992745673
 20
45.322331160857942
 30
0.0
 11
-45.0
 21
52.570794976458451
 31
0.0
  0
LINE
  5
2A9
  8
DATA
  6
CONTINUOUS
 62
     7
 10
-45.485393174901503
 20
63.515938663321101
 30
0.0
 11
-44.999999999999993
 21
52.87079497645847
 31
0.0
  0
TEXT
  5
2AA
  8
DATA
 62
     7
 10
94.999999999999957
 20
-226.68334472222219
 30
0.0
 40
3.2576822916666659
  1
ファンタム電源供給ユニット
 41
0.7
 11
94.999999999999957
 21
-223.4256624305556
 31
0.0
 73
     3
  0
ENDSEC
  0
EOF
